Eminem - Stan [ Bass Tab ]

Discussion in 'English Guitar Tabs - Submit or Request' started by slash, Sep 18, 2003.

  1. slash

    slash New Member

    Eminem - Stan [ Bass Tab ]


    Riff 1
    G :-----------------:-----------------:
    D :-----------------:-4---------------:
    A :---------7-----7-:-----------------:
    E :-4-----4---------:---------7---6---:

    Riff 1
    G :-----------------:-----------------:
    D :-----------------:-----------------:
    A :---------7-----7-:-8-------7-------:
    E :-4-----4---------:-------------7-6-:


    Riff 1 3x
    Riff 2 1x
    and repeat this throughout the whole song
     

Share This Page