EANI SAITHALEY tamil song guitar tabs by lion

Discussion in 'Tamil Guitar Tabs - Submit or Request' started by sathish lion, Nov 3, 2013.

  1. sathish lion

    sathish lion New Member

    Ennai Saaithaale
    0-1-----3—5--3
    Uyir Theithaale
    0-1-----3—5--3

    Ini Vaazhveno
    0—1----3---5-6
    Inithaaga
    5-6-5-3


    Thadumaaraamal
    0-1-----3—5--3
    Tharaimothamal
    0-1-----3—5--3

    Ini Meelveno
    0—1----3---5-6
    Muzhuthaaga
    5-6-5-3

    Ithazorathil
    0-1-----3—5--3

    Nagaipoothaale
    0-1-----3—5--1

    En Paavangal Theerthen
    0---3---5---3—--5---4

    Mazhai Eeraththil
    0-1-----3—5--3
    Nanaiyaamal Naan
    0--0---1---3----1
    Veliyeraththaan
    0-1-----3—5--3

    Paarthen
    6------5

    Nadakira Varai
    0—3—5—3-1-0
    Nagargira Tharai

    0—3—5—3-1-0

    Athan Mel Thavikiren
    0---1-- 3—3—5---31

    Vizhigalil Pizhai
    0—3—5—3-1-0

    (Bm)Vizhugire Thirai
    0—3—5—3-1-0

    Athanaal Thigaikiren(D)
    0---1-- 3—3—5---31




    Netru Pole Vaanam Ada
    7—9---7---5---75---4--5
    Indru Kooda Neelam
    7—9---7---5---75

    En Naatkal Thaan Neelum
    0---5-----7—5------3---5-

    Thalli Poga Ennum Kaal
    7---5—7-5---4---3---0
    Pakkam Vanthu Pinnum
    7---5—7-5---4---3---

    Ketkaathey Yaar Sollum
    0---5-----7—5------3---5

    Paravai Naan Siragu Nee
    0---5---7---9--0---5---7---9--

    Naan Kaatrai Vella Aasai Kondaen
    4------5---7----8-7---5------7---4
    Payanam Naan Vizhigal Nee
    0---5---7---9--0---5---7---9--
    Naan Ellai Thaandi Sella Kandaen
    4------5---7----8-7---5------7---4






    ensoy and comends please

    by

    sathish lion the guitar lover ..
     
  2. sathish lion

    sathish lion New Member

Share This Page