Dont u Cry- guns N RoSeS

Discussion in 'English Guitar Tabs - Submit or Request' started by umarboy, Oct 13, 2003.

  1. umarboy

    umarboy Tabber

    Am , Dm, G , C
    |---||----------0-------|---------1-------|---------3-------|
    |---||o-----------1-----|-------3---3-----|-----------3-----|
    |---||--------2-----2---|-----2-------1---|-------0-----0---|
    |---||------2---------2-|-0-------------0-|-----0---------0-|
    |---||o-0---------------|-----------------|---2-------------|
    |-3-||------------------|-----------------|-3---------------|


    |------------------------||--------0-------|--------1-------|
    |-----------------------o||----------1-----|------3---3-----|
    |-----------0-----0------||------2-----2---|----2-------2---|
    |---------0-----0--------||----2---------2-|-0------------0-|
    |-------3-----2-----3-2-o||-0--------------|----------------|
    |------------------------||----------------|----------------|


    its the intro
    quick accurate
     
  2. esgallindeion

    esgallindeion Minstrel Knight

    I love this song. :beer:
     

Share This Page