Does anyone have the tabs for Godfather theme song

Discussion in 'English Guitar Tabs - Submit or Request' started by Krishnanashwin, Sep 20, 2009.

  1. Krishnanashwin

    Krishnanashwin New Member

    Does anyone have the tabs for Godfather theme song
     
  2. sreenuisbusy

    sreenuisbusy New Member

    am waiting 22
     
  3. insatcool

    insatcool New Member

    e:--------------------|---------------|---------------------|---------------|
    B:------1--0-----1----|-0-------------|-------1--0-----1----|-0-------------|
    G:---2--------2-----2-|----2-----0----|----2--------2-----2-|----2----------|
    D:2-------------------|-------3-----2-|-2-------------------|-------3--2--0-|
    A:--------------------|---------------|---------------------|---------------|
    E:--------------------|---------------|---------------------|---------------|

    e:-------------|------------|---------------------|--------------|
    B:-----------0-|------------|---------------------|--------------|
    G:--------2----|-------1--2-|-------0--------0----|--------------|
    D:--0--3-------|-0--3-------|----------3--2-----3-|-3--2---------|
    A:-------------|------------|-0--3----------------|-------2--3--0|
    E:-------------|------------|---------------------|--------------|
     
  4. jithu007

    jithu007 New Member

    solo guitar
    please rate it..,I worked hard on it! :)



    ...here we go..!
    W H E E E E
    E||-------------------|-------------------------8--11--|
    B||-------------------|----------------------8---------|
    G||-------------------|--------------------------------|
    D||-------------------|--------------------------------|
    A||-------------------|--------------------------------|
    E||-------------------|--------------------------------|


    E E E E E E T S S S. H E E E E
    --10--8--11--8--10--8-----------|------------------8--11--|
    ---------------------------9-11-|--8~-----------8---------|
    -----------------------L--------|------------L------------|
    --------------------------------|-------------------------|
    --------------------------------|-------------------------|
    --------------------------------|-------------------------|


    E E E E E E T S S S. H E E E E
    --10--8--11--8--10--8-----------|---------------------7--|
    ---------------------------8-7--|--6~-----------6--9-----|
    -----------------------L--------|------------L-----------|
    --------------------------------|------------------------|
    --------------------------------|------------------------|
    --------------------------------|------------------------|


    H E E E E H E E E E
    --10~--------L--------7--|--8~-------------------18--|
    ----------------6--9-----|---------------13--16------|
    -------------------------|---------------------------|
    -------------------------|---------------------------|
    -------------------------|---------------------------|
    -------------------------|---------------------------|


    E E. T S S. E E E E H E E E E
    --16--15---L-18-16-16--15--15--7--|--8~--------L--8--8--7--|
    ----------------------------------|------------------------|
    ----------------------------------|------------------------|
    ----------------------------------|------------------------|
    ----------------------------------|------------------------|
    ----------------------------------|------------------------|


    H Q E E H E E E E H E E E E
    --6--------10----8-----|-------------------------|------------------------|
    --------------------9--|--8~-----------8--11--8--|--6~-----------6--9--7--|
    -----------------------|-------------------------|------------------------|
    -----------------------|-------------------------|------------------------|
    -----------------------|-------------------------|------------------------|
    -----------------------|-------------------------|------------L-----------|


    H E E E E E E E E E E T S S S.
    ------------L-----8--11--|--10--8--11--8--10--8-----------|
    --8~--------x--8---------|---------------------------9-11-|
    ------------x------------|--------------------------------|
    ------------x------------|--------------------------------|
    -------------------------|--------------------------------|
    -------------------------|-----------------------L--------|


    H E E E E E E E E E E T S S S.
    -----------------8--11--|--10--8--11--8--10--8--L--------|
    --8-----------8---------|---------------------------8-7--|
    ------------------------|--------------------------------|
    ------------------------|--------------------------------|
    ------------------------|--------------------------------|
    ------------------------|--------------------------------|


    H E E E E H E E E E
    ----------------------7--|--10~--------L---------7--|
    --6~-----------6S--9-----|----------------6S--9-----|
    -------------------------|--------------------------|
    -------------------------|--------------------------|
    -------------------------|--------------------------|
    -------------------------|--------------------------|


    H E E E E E E E E E E T S S S.
    --8~--------L--8--11S--18--|--16p--15--18--16--16p--15--L---15-19-|
    ---------------------------|--------------------------------------|
    ---------------------------|--------------------------------------|
    ---------------------------|--------------------------------------|
    ---------------------------|--------------------------------------|
    ---------------------------|--------------------------------------|


    H E Q. W W
    --<>20--------L---------|-------------------|-------------------|
    ------------------------|-------------------|-------------------|
    ------------------------|-------------------|-------------------|
    ------------------------|-------------------|-------------------|
    ------------------------|-------------------|-------------------|
    ------------------------|-------------------|-------------------|


    W W W W
    -------------------|-------------------|-------------------|-------------------|
    -------------------|-------------------|-------------------|-------------------|
    -------------------|-------------------|-------------------|-------------------|
    -------------------|-------------------|-------------------|-------------------|
    -------------------|-------------------|-------------------|-------------------|
    -------------------|-------------------|-------------------|-------------------|


    W H E E E E H Q E E
    -------------------|--------------8--8--7--|--6--------10----8-----|
    -------------------|-----------------------|--------------------9--|
    -------------------|-----------------------|-----------------------|
    -------------------|-----------------------|-----------------------|
    -------------------|-----------------------|-----------------------|
    -------------------|-----------------------|-----------------------|


    H E E E E H E E E E H E E E E
    -------------------------|------------------------|------------------8--11--|
    --8~-----------8--11--8--|--6~-----------6--9--7--|--8~-----------8---------|
    -------------------------|------------------------|------------x------------|
    -------------------------|------------------------|-------------------------|
    -------------------------|------------------------|-------------------------|
    ------------L------------|------------------------|-------------------------|


    E E E E E E T S S S. H E E E E
    --10--8--11--8--10--8-----------|------------------8--11--|
    ---------------------------9-11-|--8~-----------8---------|
    --------------------------------|------------x------------|
    --------------------------------|------------x------------|
    --------------------------------|------------x------------|
    --------------------------------|-------------------------|


    E E E E E E T S S S. H E E E E
    --10--8--11--8--10--8--L--------|----------------------7--|
    ---------------------------8-7--|--6~-----------6S--9-----|
    --------------------------------|-------------------------|
    --------------------------------|-------------------------|
    --------------------------------|-------------------------|
    --------------------------------|-------------------------|


    H E E E E H E E E E
    --10--------L---------7--|--7b-----------8--11--18--|
    ---------------6S--9-----|--------------------------|
    -------------------------|--------------------------|
    -------------------------|--------------------------|
    -------------------------|--------------------------|
    -------------------------|--------------------------|


    E E E E E E E E W
    --16--15--18--16--16--15--15--19--|--19b----------------|-------------------||
    ----------------------------------|---------------------|-------------------||
    ----------------------------------|---------------------|-------------------||
    ----------------------------------|---------------------|-------------------||
    ----------------------------------|---------------------|-------------------||
    ----------------------------------|---------------------|-------------------||
     

Share This Page