Do dil, mil rahe hain - Pardes

Discussion in 'Hindi Guitar Tabs - Submit or Request' started by Redalert, Aug 13, 2003.

  1. Redalert

    Redalert New Member

    Another bery Kool song....


    E-----------------------------------|--------------|-------------------------|
    B-----------------------------------|--------------|-------------------------|
    G--------------------0--2--0-----0--|Repeat Measure|--------------0-1-0------|
    D--0------3-------------------3-----|--------------|--0-0-3-------------3-2-3|
    A-----------------------------------|--------------|-------------------------|
    E-----------------------------------|--------------|-------------------------|

    E-----------------------------------|----------------------------------------|
    B-----------------------------------|----------------------------------------|
    G--------------------0--2--0-----0--|--------------0-1-0---------------------|
    D--0------3-------------------3-----|--0-0-3-------------3-2-3---------------|
    A-----------------------------------|----------------------------------------|
    E-----------------------------------|----------------------------------------|

    E-----------------------------------|-----------------------------------|
    B-----------------------------------|-----------------------------------|
    G--3--3--3------3-2-0---0--2-0------|--3--3--3-3------3-2-0---0--2-0----|
    D---------------------3-------------|-----------------------3-----------|
    A-----------------------------------|-----------------------------------|
    E-----------------------------------|-----------------------------------|

    E-----------------------------------------------|-----------------------|
    B-----------------------------------------------|-----------------------|
    G------------------0-1-0------------3----3------|-----------------------|
    D--1--1Slide5------------3-2-3-------------3-2-0|Play Second Line-------|
    A-----------------------------------------------|-----------------------|
    E-----------------------------------------------|-----------------------|

    E----------------------------------------------------------|-------------------|
    B-------1-3-1----------------1----------1-3-1--------------|-------------------|
    G----3--------3-2-0------0-------------3------3-2--2-0--0-3|Repeat Previous Bar|
    D-------------------3--3-----------------------------------|-------------------|
    A----------------------------------------------------------|-------------------|
    E----------------------------------------------------------|-------------------|

    E----------------------------------------------------------|
    B---------------------------1------------------------------|
    G--0--1-0------2-0------0-1---0----------------------------|
    D-------------------------------3--------------------------|
    A----------------------------------------------------------|
    E----------------------------------------------------------|
     
  2. nautilus

    nautilus New Member

    i also played this song but a bit differently......plz suggest whether this iS ok or not

    E--0--1--3---5--6--5--3--5---|-----0--1--3--3--5--3----1--0--1----
    B-------------------------------------------------------------------
    G-------------------------------------------------------------------
    D-------------------------------------------------------------------
    A-------------------------------------------------------------------
    E-------------------------------------------------------------------

    E--8--8--7--5--3--5--6--5----|----0---1--3--3--5--3--1--0--1------
    B-------------------------------------------------------------------
    G-------------------------------------------------------------------
    D-------------------------------------------------------------------
    A-------------------------------------------------------------------
    E-------------------------------------------------------------------
     
  3. nehajindel

    nehajindel New Member

    hey i need the chorrd of this song if anybody can help me out
     
  4. its4ashish

    its4ashish New Member

    some problem

    I got some problem in understanding this tab. I am not able to play this song. I didnt understand the Repeat Measure. Could u please tell me what is this?? :eek::
     

Share This Page