dil to dil hai (jindagi ek juwa)

Discussion in 'Hindi Guitar Tabs - Submit or Request' started by JUDAS_666, Oct 6, 2010.

  1. JUDAS_666

    JUDAS_666 New Member

    E-------------------------------------------------------------------------------------------------------------------------------------------------------
    b--------------------------------------------------------------------------------------------------3h5-6-5-3-1-0-1---------1/3-1----------------------------------------
    g----------2/4-2-0----------------------5-4-------------------------4-2-0---0h2-0---1-2-4-1------------------------2-----------4-2-4h5-4---------------------
    d-2-4-5-2----------4-5-4-2--2-4-5-2------7-5-7-5-4---0-2-4-0--------4----------------------------------------4-5--0-------------------------------------
    a-------------------------------------------------------------------------------------------------------------------------------------------------------
    e-------------------------------------------------------------------------------------------------------------------------------------------------------


    keyboard
    (EBBBCCBB EBBBCCBB D#BBBCCBB D#BBBCCBB)



    .......Em...................D#aug..........................
    E-----7-------7---------7-------7---------------------------
    B--8---8---8--8-----8--8----8--8-----------------------------
    G-9-------9---------8-------8-------------------------------


    (play the above riffs)
    Em..............D#aug.......
    Dil to dil hai, Dil ka kya hai
    Em.............D#aug.......
    Jis pe aya, uspe aya
    Em..............D#aug.......
    Dil ki baatein, dil hi soche
    Em..............D#aug.......
    Dil hi samjhe, dil ki maya

    .......Am......................D (play D one bar just before G)
    Dil ki maya, Puchiye
    .......G............Bm........E...
    To jara, Mujhko kya---aaaaa
    ......Am
    Chahiye

    .......Am......D
    Darde dil,
    .......G............Bm........E...
    Ki mujhe, Bas Dabaa....aaaaa
    ......Am
    Chahiye

    Same chords for intehaa ho chuki.......



    Stanza
    Am
    Koi naa jane kisse milke
    G
    kab lag jaye kaisi agan
    F
    Rasme tode duniya chode
    E...................Am
    dil na maane koi chalan


    Similar pattern for the rest of the song
     

Share This Page