Dil Ko from RHTM correct chords+Audio

Discussion in 'Hindi Guitar Tabs - Submit or Request' started by jayswami, Jan 25, 2005.

  1. jayswami

    jayswami Blue J

    Code:
    Dil ko    tumse pyar hua
         Am   Dm           G    
     
     Pehli baar hua      tumse pyar hua
     C            F      G            C         E7    
     
     mein bhi        aashiq pyar hua 
           Am        Dm            G                            
     
     Pehli baar hua      tumse pyar hua
     C           F       G            C       E7      
     
     
     chahi hey             
           Dm      Am 
     betaabi                                               
           Dm      Am
     
     meri jaan  kaho mein kya karu
           Bb   F     E7sus4   E
    
     
     chahi hey             
           Dm      Am 
     betaabi                                               
           Dm      Am
     
     meri jaan  kaho mein kya karu
           Bb   F     E7sus4   E7
    
    
    
    (guitar lead starts with last two bars)
     ---<<p/>srgm/pdpm/grsr/
     g---/m-p-/----/--pd/
     n(>s<n)dp/mpps/srr-/--rg/
     gmmp/p->ss/---r/r---/
     rmgr/sgrs/<np-p/pdpm/
     (vocal joins in) p---/
     
    
    Antara 1:
    
    
     Am/%/%/%/%/%/%/%/
     Am/G/F/E7/Am/G/F/E7
     -/-/-/-/
    
    (inter2)
     
     (fast rhythm)
     Am/%/%/%/%/%/%/%/
     
     (Strings)
     Am/Em/F/C/Dm/Dm7/G/E7
    (vocals + guitar)
     g-m-p---/g-m-p---/
     g-m-pn-nb/-d-p----/
     (above twice)
     (chords during vocal+guitar)
     A5/G5/F5-F#5/F5-A5/ (twice)
     
    
     
    Antara 2 chords similar to first
     
    
    Audio can be found at:
    http://vorlon.cwru.edu/~jayen/IGT/Ondra Renda.mp3
    and
    http://vorlon.cwru.edu/~jayen/IGT/Ondra Renda Rendu.mp3

    Since i cant play lead, i have skipped the first interlude.. If possible i will record my next tamil band practice. our guitarist manu plays exact.
     
    tejas and Subhro like this.
  2. Subhro

    Subhro Argentina lost :&quot;(

    nice 1 Jay :)
     
  3. rizaaj

    rizaaj Forum Leader

    great... simply great... toooooo cool...

    been looking for something like this for a long time..

    thanks and thanks again..
     
  4. d_ist_urb_ed

    d_ist_urb_ed Genuflect b*tches!

    Amazing work sir, you rock:rock:
     
  5. rizz

    rizz *Always 420*

    simply best
     
  6. Subhro

    Subhro Argentina lost :&quot;(

    yep.. u rock :)
     
  7. DesiPride143

    DesiPride143 BEHAVE!

    wut is da strumming pattern jay.....
     
  8. jayswami

    jayswami Blue J

    Code:
    
       d  u  d u d   u     d u d u
    ---5--5--x-x-x---5~----x-x-x-x--
    ---5--5--x-x-x---6~----x-x-x-x--
    ---5--5--x-x-x---7~----x-x-x-x--
    ---7--7--x-x-x---7~----x-x-x-x--
    ---7--7--x-x-x---5~----x-x-x-x--
    ---5--5--x-x-x---5~----x-x-x-x--
        Am           Dm
    
    ---3--3--x-x-x---3~----x-x-x-x--
    ---3--3--x-x-x---5~----x-x-x-x--
    ---4--4--x-x-x---5~----x-x-x-x--
    ---5--5--x-x-x---5~----x-x-x-x--
    ---5--5--x-x-x---3~----x-x-x-x--
    ---3--3--x-x-x---3~----x-x-x-x--
        G            C
    
    ---1--1--x-x-x---3~----x-x-x-x--
    ---1--1--x-x-x---3~----x-x-x-x--
    ---2--2--x-x-x---4~----x-x-x-x--
    ---3--3--x-x-x---5~----x-x-x-x--
    ---3--3--x-x-x---5~----x-x-x-x--
    ---1--1--x-x-x---3~----x-x-x-x--
       F             G
    
    
    ---3--3--x-x-x---7~----x-x-x-x--
    ---5--3--x-x-x---0~----x-x-x-x--
    ---5--5--x-x-x---7~----x-x-x-x--
    ---5--5--x-x-x---6~----x-x-x-x--
    ---3--5--x-x-x---7~----x-x-x-x--
    ---3--3--x-x-x---7~----x-x-x-x--
       C             E7
    
     
  9. jayswami

    jayswami Blue J

  10. satan_rulez_u

    satan_rulez_u New Member

    great work man absolutely awesomeeeeeeeeeeeeeeee!!!!!!!!!!!!!!!!!!!!!!!!!!!!!!!!!1
     
  11. DesiPride143

    DesiPride143 BEHAVE!

    thanx dude....indeed a great piece of work
     
  12. Hardik

    Hardik .:.:.:BoRn TaLenT:.:.:.

    you rock man...... you simply rock...
    awesome work.....thanks
     
  13. aam422

    aam422 New Member

    This site rocks

    Hey yall I'm Aditya..i'm new here...and this site is simply amazing...i've been learning the guitar for three days now and i can play 2 songs already with the help of this site...keep the gr8 job up...M. Jayswami your 'akale hai' from QSQT was amazing..
     
  14. rrwar

    rrwar New Member

    dil ko RHTDM

    Hi !
    I joined the forum just yesterday. I could not find the dil ko audio at the site.
    I want the strumming pattern also. Could you put it back ?

    Thanks
     
  15. tejas

    tejas ..........

    Great work man. Keep tabbing. Reputation coming your way.
     
  16. indianplaymate

    indianplaymate New Member

    I'm bit confused with the strumming pattern that u have given.
    u hav used 577555 for Am.

    d u d u d u d u d u
    ---5--5--x-x-x---5~----x-x-x-x--
    ---5--5--x-x-x---6~----x-x-x-x--
    ---5--5--x-x-x---7~----x-x-x-x--
    ---7--7--x-x-x---7~----x-x-x-x--
    ---7--7--x-x-x---5~----x-x-x-x--
    ---5--5--x-x-x---5~----x-x-x-x--
    Am Dm


    Can i use 002210 instead of the one u have given?

    d u d u d u d u d u
    ---0--0--x-x-x---1~----x-x-x-x--
    ---1--1--x-x-x---3~----x-x-x-x--
    ---2--2--x-x-x---2~----x-x-x-x--
    ---2--2--x-x-x---0~----x-x-x-x--
    ---0--0--x-x-x---0~----x-x-x-x--
    ---0--0--x-x-x---0~----x-x-x-x--
    Am Dm

    Same with Dm.
     
  17. indianplaymate

    indianplaymate New Member

    i forgot to ask one more thing.
    does the X mark on the strumming pattern means open chord?
     
  18. jayswami

    jayswami Blue J

    X means muted. meaning.. in the bar position of the chord.. Am for example.. release presure on your the fret and then strumm.. the the chord will sound muted..

    like Am Am XX XX =chan chan chaka chaka..

    And no u cannot use open chords on this song.it wont sound right.
     
  19. koolstrum

    koolstrum The Chosen One

    can u post the link again. its not workin.
     
  20. buddy

    buddy New Member

    hi guys a small request its gr8 to have the audio for listening to the strumming but like me its difficult to find out the strumming so plz if any1 can post videos of ur guitar playing it will be a gr8 asset for us not the entire song but just a little bit of strumming thats all.
     

Share This Page