Dil haaray Solo (done in proper scale!)

Discussion in 'Pakistani Guitar Tabs - Submit or Request' started by Quadrophenia, Aug 30, 2005.

  1. Quadrophenia

    Quadrophenia New Member

    Tabber: Quadrophenia
    Song:Dil haaray
    Band: Jal the band
    Scale: A-Dorian


    Legend

    * - pause or hold note.
    ! - listen to the rhythm ive only given one note,





    Time 3:20 < 3:26 - 3:28 >
    e-------------------------------------------------------------
    B-------------------------------------------------------------
    G-----4--7*---7--5--4*--4--7-7--4-5-4-4- 4-5-4-4---4-5-4-4---
    D-------------------------------------------------------------
    A-------------------------------------------------------------
    E-------------------------------------------------------------

    <(3:34)>
    e-------------------------------------------------------------
    B-------------------------------------------------------------
    G--5-4-------------5-4--------------7--5--4-------5--4--------
    D-------7-5--5h7p5-----7-5--5h7p5------------7*---------7--5*-
    A-------------------------------------------------------------
    E-------------------------------------------------------------

    e------5/8---8-7!-5!----------8-7!-5!-------------------------
    B--7p5----------------8-7-8*-----------8-7-8*-----------------
    G-------------------------------------------------------------
    D-------------------------------------------------------------
    A-------------------------------------------------------------
    E-------------------------------------------------------------


    e--8--7--5----------------------------------------------------
    B-----------8-7-5h7p5--5~--5h7p5----------5--4*-5--4--5-4*----
    G---------------------------------7-5-7*----------------------
    D-------------------------------------------------------------
    A-------------------------------------------------------------
    E-------------------------------------------------------------

    e-----------5--7--8----8-7--5---------------------------------
    B-5--7--8----------------------8--7--5------------------------
    G----------------------------------------7---5--4-4h5p4-------
    D--------------------------------------------------------7*---
    A-------------------------------------------------------------
    E-------------------------------------------------------------

    e-------------------------------------------------------------
    b-------------------------------------------------------------
    G-------------------------------------------------------------
    D-7--5--4-4h5p4-----------------------------------------------
    A----------------7*---7-5*---7-5---7-5*-----------------------
    E-------------------------------------------------------------


    e-------------------------------------------------------------
    b-------------------------------------------------------------
    G-------------------4--5--7-----------------------------------
    D----------4--5--7--------------------------------------------
    A----5--7-----------------------------------------------------


    e------12*---8*---7*----5*------------------------------------
    E-------------------------------------------------------------
     

    Attached Files:

  2. J.J

    J.J The Guitar God

    fit bohat aala...
     
  3. Mohsin shahid

    Mohsin shahid New Member

    lol why everyone is upto dil haray solooooooo!!!
     
  4. Quadrophenia

    Quadrophenia New Member

    coz no one is posting the correct one! ive done it outta frustration..coz its quite easy!!
     
  5. Orange Guitar

    Orange Guitar IGT's ALLROUNDER

    i'll try it...and then let u know!!
     
  6. larsan

    larsan K-Dash

    kool work bro...keep it up..............
     
  7. Lahori_rocker

    Lahori_rocker Guitar God left IGT

    agreed wid larsan kool work bro.................keep it up..............:)
     
  8. Quadrophenia

    Quadrophenia New Member

    thanx u guys..its not 100 % but its the correct scale.. so anything u play within A-Dorian wud sound cool ;)
    i do realise ive missed afew notes here and there. if anyone can perfect it or has more suggestions or corrections most welcome!
    PEACE!
     
  9. Spellbinder

    Spellbinder Crescentarian

    thats great work i have tried them they rock
    _____________________________
    Its Magic!!!!!!!!!!!!!!
     
  10. kl12

    kl12 (Ghost Note)

    yuk!!!!!!!!
    the really Original solo is posted by a guy name 'Complicated' .......check his solo..it rocks..ur solo no matching .
     
  11. Orange Guitar

    Orange Guitar IGT's ALLROUNDER

    yup man....ur solo is way out of the way!!!!
     
  12. Quadrophenia

    Quadrophenia New Member

    this is driving me crazy.
    i think ive got a personal ''dushmani'' with this solo .. :annoyed:
    P.S: thats what u get in half an hour ;)
     
  13. Quadrophenia

    Quadrophenia New Member

    okay i take that back....u make me unconfident orange guitar + K|12 ..if u guys have tried it and it doesnt work..then its coz YOUR timing is out!! all the notes and the correct scale is there.. tell me what u think is rong with the tab + scale..i'm ready to debate it after playing it..( i hadnt actually played the whole thing until now..ive only managed to tab bits and bobs and put them together!) khair, i'll post a recording.
     
  14. Quadrophenia

    Quadrophenia New Member

  15. Orange Guitar

    Orange Guitar IGT's ALLROUNDER

    man.................dont get annoyed......but solo is ........ wrong!!!!!!!!!!!!!!!!!!!!! yar .... main is kee recording bhaijon???????????
     
  16. Quadrophenia

    Quadrophenia New Member

    recording nahin..send me the tabs which u used and lemme compare them. also,have u heard the recording?,..listen to the recording!!!
     
  17. J.J

    J.J The Guitar God

    haan yaar just now i heard it...it is a bit wrong...
     
  18. Quadrophenia

    Quadrophenia New Member

    yes afew notes out. here n there.
     
  19. ayad

    ayad New Member

    it sound okay to me...... about 40% correct
     
  20. Orange Guitar

    Orange Guitar IGT's ALLROUNDER

    ok...i m postin the tabs ... but listen 2 dil haaray solo in media player with slow speed.....compare it with my recording!
     

Share This Page