Dil Chahta Hai : FreindShip Tune

Discussion in 'Hindi Guitar Tabs - Submit or Request' started by hehaa, Aug 29, 2004.

  1. hehaa

    hehaa New Member

    TITLE:-DIL CHAHATA HAIN (FRIENDSHIP TUNE) PLAYED IN THE CASTING OF THE MOVIE AND IN SOME INTENSE SCENES OF AAMIR KHAN ......

    MOVIE:- DIL CHAHATA HAIN..
    From : He Haa






    E-------0----------------------------------5----6---------
    B-------------6---------------------6----------------8----
    G------------------7-----------7--------------------------
    D---------------------------------------------------------
    A---------------------------------------------------------
    E---------------------------------------------------------



    E---0-------------------------------------8----------------
    B--------6------------------------6------------------------
    G--------------7-----------7-------------------------------
    D----------------------------------------------------------
    A----------------------------------------------------------
    E----------------------------------------------------------



    Tabbed By :: He Haa :: (SNIP)
     
  2. ijlal

    ijlal The B chord

    :p cool hee haa...
    nice tabs :)
    thanks for sharing
     
  3. KannadaBoi

    KannadaBoi Kannadiga

    NIce Tabs HeHa
     
  4. nitinsw

    nitinsw the unforgiven

    mast !!! :)
     
  5. dancepodium

    dancepodium New Member

    Awesome..thanks
     
  6. gautam_njoy

    gautam_njoy New Member

    dude that was awesome mann... gr8 job!!!! keep it up!!!
     
  7. xan

    xan New Member

    Here goes the correct one




    E---------------------------------------------2------3--------0
    B---2-----3------0--------2--------3------------------------
    G-------------------------------------------------------
    D---------------------------------------------------------
    A---------------------------------------------------------
    E---------------------------------------------------------


    E---------------------------------------------5--------------
    B---2-----3------0--------2--------3------------------------
    G-------------------------------------------------------
    D---------------------------------------------------------
    A---------------------------------------------------------
    E---------------------------------------------------------
     
  8. incognito_rathi

    incognito_rathi New Member

    can i get keyboard tabs..i m a beginner plzz
     
  9. kaush

    kaush New Member

    E---3----4----1-------3----4-------8---9---6----
    B-------------------------------------------------
    G-------------------------------------------------
    D-------------------------------------------------
    A-------------------------------------------------
    E-------------------------------------------------


    E---3----4----1-------3----4-------8---9---11----
    B--------------------------------------------------
    G--------------------------------------------------
    D--------------------------------------------------
    A--------------------------------------------------
    E--------------------------------------------------
    Reply With Quote
     
  10. chatty_arko

    chatty_arko New Member

    hehaa g8 tabbing
     
  11. chirag45

    chirag45 New Member


    urs matches d scale in dis scene from d movie perfectly ^___^
    video link: http://www.youtube.com/watch?v=sleDFrWsIlE
     
  12. kushalkulll

    kushalkulll New Member

    help me plzzzzzzzzz

    hey der cn ne1 explain d above figs 2 me????
    i knw nthn abt notations:(
     
  13. atulagrawal82

    atulagrawal82 New Member

    great tabbing hehaa & xan! keep it up!
     
  14. xan

    xan New Member

    hey thanx buddy ;)
     
  15. xan

    xan New Member

    Hey thanx buddy!! ;)
     
  16. kushalkulll

    kushalkulll New Member

    hey der cn ne1 explain d above figs 2 me????
    i knw nthn abt notations:(
     
  17. kushalkulll

    kushalkulll New Member

    **** im so shitty man dint knw such a simple thing..sry guys:(
     
  18. ravindrajal

    ravindrajal New Member

    hello

    hello iam the new member
     
  19. aliozair

    aliozair New Member

    on the second string (B)
    2--3--0----2-3--7-8--5---2--3--0---2-3-10

    or

    e-0------0---5--6--3---0--------5-6--13
    B---6------6-------------6--------------
    G-----7--------------------7------------
    D-
    A-
    E-
     
  20. Salil Sardana

    Salil Sardana New Member

    here r d complete tabs (including d hohoho... part) in d original scale dat plays 2wrds d end of d movie wen akash is in d car n gets nostalgic seeing some college guys...


    g ---------12-------------------------------12--------------------------
    b --10-11----10-11--------11s13----10-11------10-11------------------
    e -------------------10-11-------------------------------13-------------

    (11s13 means pick d 11th fret n slide it to 13th fret immediately)


    g -10-12-------------------------------------10-12-----------------------10-12-----------------------
    b --------11-----13-11-10--------10---------------11----11s13--11-10------------------------------
    e ------------10------------10-12----------------------10----------------------------------------------



    ENJOYYYYY !!!!!!!
     

Share This Page