Dil Chahta hai Background music RHYTHM?

Discussion in 'Hindi Guitar Tabs - Submit or Request' started by rahmandilse, Oct 7, 2004.

  1. rahmandilse

    rahmandilse New Member

    Dil Chahta hai, The background music tune, TABS ADDED !!!

    Hey, any of you guys know the background rhythm or tune thats always playing when you watch the whole movie? I dont know how to explain it, but its solo tune, with plucking of strings. (you know, i am an amatuer) ....

    Please, i love that tune....

    And also the tune from ANJANI RAHO MEIN FROM LUCKY ALI, not the whole song , but the signature tune at the begining and at the end of the song.


    Thanks in advance
     
  2. rabbit

    rabbit Member

  3. rahmandilse

    rahmandilse New Member

    No, not that one, thats like a sad tune in the movie....

    But the other one? i dont know how to explain this...does any one has it? I searched everywhere , but cant find it...
    I think you gotta watch the movie inorder to get the background music. Please some one, its a beautiful piece of tune, if some posts it, it woulda be awesome....

    Please, if someone has seen the movie, then you might notice, i will try to upload the BGM if , possible on some server. I have the DVD of dil chahta hai....Let me try, till then byebye, thanks rabbit, but thats not the one i am looking for...

    Rahmananiac !!!

    By the way, does anyone has Swades TABS?
     
  4. rahmandilse

    rahmandilse New Member

    Cheers !! I have uploaded the Mp3 file....

    Hey, here is the link to an mp3 file of the DIL CHAHTA HAI TUNE....



    Please some one compose the tabs for it[SNIP]

    THanks... By the way, i got the first part of it !!!! It was random, trust me, but it sounds pretty good !!! CHeck this out....My first discovery..lol :rock: :cool:

    Play it really slow: The DIL CHAHTA HAI BACKGROUND MUSIC TUNE !!!

    e ------3---------5-------------------------------------------
    B --0--------3---------5-----5-----3-----1-----0-------------
    G ------------------------------------------------------------
    D ------------------------------------------------------------
    A ------------------------------------------------------------
    E ------------------------------------------------------------ Play twice..

    AND the another part of the same tune....I love this tune....

    e -------------------3---------------------------------------
    B ---5-------3------------------5-------3------0-------------
    G --------5---------------------------5-----------------------
    D ------------------------------------------------------------
    A ------------------------------------------------------------
    E ------------------------------------------------------------ Back to main theme....


    Please grade my first work...tell me how do you like...>Though, i am not
    a good guitarist...hehe...I want the perfect tune, this one is kind of
    close though...Thanks all... :rockon:


    Please download the file and let me know, if you can compose this entire tune....

    Also, this is the website that i am currently working on....

    [SNIP] ..... A fan site of A.R.Rahman !!!
    I appreciate your help....THanks..

    This is going to be my COPYRIGHT !!!!...Do not copy this tab .... :cen:
     
  5. bob-bobby

    bob-bobby Extinct or Banned!

    wow, thats really a nice rythm dude ,...
     
  6. rahmandilse

    rahmandilse New Member

    thanks bobby, but try to download the original rhythm from dil chahta hai,

    here is the link : [SNIP]

    Thanks ....
     
  7. rahmandilse

    rahmandilse New Member

    Please post your feedback....how do you like the tune?
     
  8. rahmandilse

    rahmandilse New Member

    475 + views and no replies ? Common, if you try it then please rate it....

    Thanks
     
  9. jayswami

    jayswami Blue J

    Oh cool thats the akshay khanna theme in the movie.. based on the song kaisi hai yeh ruth.. its more of a beautiful piano composition in G with cool acoustic guitar and then flute when then speed picks up.. when akhsay khanna runs hard form dimple's house to his house to pick up his painbrush.. and then comes back to get klpd.. :D

    Well I just registered to this forum. I am vacationing in india rt now when i get back to US, i can post transcription for Dil Chahta hai soundtrack. I've got the following transcriptions.


    Akhsay Khanna's theme - (chords,piano transcription)
    Smooth jazz which plays in the restraunt when saif khan chases the girl and her bf (chords,xption)

    Smooth Jazz in sydney when aamir khan and preity zinta have lunch.
    chords,xption
    Ina Mina Dika blues (dimple's bdday bash) -tabs

    hard rock roller coaster guitar loosely based on barracuda by heart-- this is played during the roller coaster ride -tabs

    If there is sufficient interest I will post all of these.


    J
     
  10. Hopes Up

    Hopes Up New Member

    for real

    U should post em. This is the first time I m checking this site and its pretty cool dude. peace
     
  11. bakardi

    bakardi New Member

    good...its eeasy...
     
  12. rajendargoyal

    rajendargoyal New Member

    Hi... the tabs are really cool.. why arent the links showing up ? i can only see a [SNIP] in place of where the links should be... somebody please help. Thanks
     
  13. viraj_zaveri

    viraj_zaveri New Member

    Thanks rahmandilse,
    I like the tabs very much,i was looking for them.
     
  14. mygittu

    mygittu New Member

    Hey rahmandilse I got the tune you want!!!!!!

    I think you are talking about this tune.......the link is follows:

    ***********rapidshare.com/files/365825952/Dil.Chahta.Hai.2001ring.zip*********


    check it out and reply.............And also send me the audio of this Background Score!!!!
     
  15. Born2Play

    Born2Play New Member

    Hi guys I was looking for the tune as well. Its the guitar solo thats always playing during the emotional parts of the movie. I can only get the first part of it.

    e--0-------------5---6------
    B----6--------6---------8---
    G------7---7----------------
    D----------------------------
    A----------------------------
    E----------------------------


    I can't figure out the rest. Any help?
     
  16. phenommm

    phenommm New Member

    hey rahmandilse

    i have slightly modified the tabs...see if this sounds better..

    e ------3---------5-------------------------------------------
    B --0--------1---------3-----5-----3-----1-----0-------------
    G ------------------------------------------------------------
    D ------------------------------------------------------------
    A ------------------------------------------------------------
    E ------------------------------------------------------------

    rest is good.. i think..
    e -------------------3---------------------------------------
    B ---5-------3------------------5-------3------0-------------
    G --------5---------------------------5-----------------------
    D ------------------------------------------------------------
    A ------------------------------------------------------------
    E ------------------------------------------------------------
     
  17. saketh.theerdha

    saketh.theerdha New Member

    e--0-------------8---
    B----6--------6------------
    G------7---7----------------
    D----------------------------
    A----------------------------
    E----------------------------
     
  18. peacefulwarrior

    peacefulwarrior New Member

    hey

    need some nice solo guiter tune as ringtone
     
  19. aliozair

    aliozair New Member

    this is how i would play it
    -------on the second string (B)
    2--3--0----2-3--7-8--5---2--3--0---2-3-10

    and now to correct what you are trying to do
    e-0------0---5--6--3---0--------5-6--13
    B---6------6-------------6--------------
    G-----7--------------------7------------
    D-
    A-
    E-
     

Share This Page