dhiktana and solaah singar tabs

Discussion in 'Hindi Guitar Tabs - Submit or Request' started by sdshah, Sep 6, 2008.

  1. sdshah

    sdshah New Member

    can someone help me get dhiktana or solaah sigar in tablature form for guitar.
    Thanks
     
  2. sdshah

    sdshah New Member

    dhiktana or solaah singar tabs for guitar

    hi bye thenk
     
  3. ernav

    ernav Member

    hello....

    dhiktana...song already posted by...................VISORCHESTRAGRP
     
  4. ernav

    ernav Member

    song tabbed by VISORCHESTRAGAP

    Hum aapke hain kuan ?
    Singer - S. P. Balasuramaniyam

    INTRO :-
    B |--------2-2-2---------2-2-2---------2-3-2-------2------------------
    G |--2-4-----------2-4-----------2-4-----------4------4-2-4-2-1-------

    G |--1-2-4-4-4--1-2-4-4-4--1-2-4-6-4-2-4-2-1-2-1--------------------
    D |---------------------------------------------------------4-----------------

    HUMMING :-
    B |--------2-2-2---------2-2-2---------2-3-2-------2------------------
    G |--2-4-----------2-4-----------2-4-----------4-------4-2-4-2-1-------

    G |--1-2-4-4-4--1-2-4-4-4--1-2-4-6-4-2-4-2-1-2-1--------------------
    D |---------------------------------------------------------4-----------------

    GUITAR :-
    G |----------1-1-1--2-2-2--1-1-1-----------1-1-1----------------------
    D |--4-4-4--------------------------4-4-4-------------4-4-4--------------

    Dhik tana dhik tana dhik tana dhik Dhik tana dhik tana dhik tana
    G |----------1-1-1--2-2-2----2----1-1-1--2-2-2-1----------------------
    D |--4-4-4---------------------------------------------4-4----------------

    Dhik tana dhik tana dhik tana dhik Dhik tana dhik tana dhik tana
    G |----------1-1-1--2-2-2----2----1-1-1--2-2-2-1----------------------
    D |--4-4-4---------------------------------------------4-4----------------

    Bhabhi tum khusiyon ka khazana
    G |--6-7-6-4--4-4-6-4-2-1---------------------------------------------

    Dhik tana dhik tana dhik tana dhik Dhik tana dhik tana dhik tana
    G |----------1-1-1--2-2-2----2----1-1-1--2-2-2-1----------------------
    D |--4-4-4---------------------------------------------4-4----------------

    Dhik tana dhik tana dhik tana dhik Dhik tana dhik tana dhik tana
    G |----------1-1-1--2-2-2----2----1-1-1--2-2-2-1----------------------
    D |--4-4-4---------------------------------------------4-4----------------

    MUSIC :-
    B |---------------------2------------------------------2----------------
    G |--2-2-2-------2-4-------2-4-2--2-2-2-------2-4-------2-4-2---------
    D |----------2-------------------------------2--------------------------

    GUITAR :-
    G |----------1-1-1--2-2-2--1-1-1-----------1-1-1----------------------
    D |--4-4-4--------------------------4-4-4-----------4-3-2--------------
    A |-------------------------------------------------------------5----------

    G |----------1-1-1--2-2-2--1-1-1-----------1-1-1----------------------
    D |--4-4-4--------------------------4-4-4-----------4-4-4--------------

    STANZA :-

    Pehli kiran jab se ugay Bhabhi meri tabb se jagey
    B |--2-2------2---------2-2------2----------------------3-5-3-2-2--------
    G |--------4------4-2---------4------4-2--2-1-4-4-4--------------------

    Sabka poora dhayan dhare woh shaam dhale tak kaam kare
    G |-------1------2------1-1-------2------1-1-------2-------------------
    D |--4------4------4---------4------4----------4-------4-4-4-----------

    Pehli kiran jab se ugay Bhabhi meri tabb se jagey
    B |--2-2------2---------2-2------2----------------------3-5-3-2-2--------
    G |--------4------4-2---------4------4-2--2-1-4-4-4--------------------

    Kal tak raha iss chaavon se Mera bachpan anjana
    B |--2--2-3-2------------2----------------------------------------------
    G |-------------4--4-4------4-2--2-2--2-4-2-1-1-2--1-------------------
    D |-----------------------------------------------------------4---------------

    MUSIC :-
    B |-------------------7--5-7-5-2--------------------------------
    G |------2-4-6-6-6-----------------2-4-4------------------------
    D |--4-----------------------------------------------------------
    REPEAT TWICE

    G |--2-1----------------------
    D |--------2-4-4--------------
    REPEAT 4 TIMES

    RUN :-
    B |----------------------2---------2-3-2-----------
    G |------1-2-4--1-2-4-------2-4-------------------
    D |--4---------------------------------------------

    MUSIC :-
    G |--------1-2-1------1-2-1-------1-1--------1-2-1------1-2-1-----------
    D |--3-4-----------4----------4---------3-4-----------4----------4-4-4----

    GUITAR :-
    G |----------1-1-1--2-2-2--1-1-1-----------1-1-1----------------------
    D |--4-4-4--------------------------4-4-4-----------4-3-2--------------
    A |-------------------------------------------------------------5----------

    G |----------1-1-1--2-2-2--1-1-1-----------1-1-1----------------------
    D |--4-4-4--------------------------4-4-4-----------4-4-4------------
     
  5. mayankgupta1692

    mayankgupta1692 New Member

Share This Page