Desperado intro tabs needed !!!!!!!!

Discussion in 'English Guitar Tabs - Submit or Request' started by Asad7950, Oct 23, 2004.

  1. Asad7950

    Asad7950 New Member

    Hello can anyone post me DESPERADO 1 intro music tabs

    :rockon:
     
  2. 6String_assasin

    6String_assasin The Painkiller

    these r the leads..will post the chords for rythm later..


    E||-----------------------|--7--7----7--7----8---7----7-------|
    B||--------------------8--|-----8----8--8----10--8----8-------|
    G||-----------------9-----|------------------------------9----|
    D||--------------9--------|-----------------------------------|
    A||-----------------------|-----------------------------------|
    E||-----------------------|-----------------------------------|



    --8---7----7-------5-----------|--5--5----5--5----7--5----5--5--7--|
    --10--8----8-------7-----------|--7--7----7--7----8--7----7--7--8--|
    --------------9-------------8--|-----------------------------------|
    -------------------------------|-----------------------------------|
    -------------------------------|-----------------------------------|
    -------------------------------|-----------------------------------|



    ----5--5----2--3------------|------------------|-------------------------|
    ----7--7----4--5------------|------------------|--------------------7----|
    ----------------------------|------------------|---------------8---------|
    ----------------------------|------------------|----------9--------------|
    ----------------------------|------------------|-------------------------|
    ----------------------------|------------------|-------------------------|



    --7----------------|------------8--7------------|-------------------|
    -------------------|------------------10--8--7--|-------------------|
    -------------------|----------------------------|--9----------------|
    -------------------|----------------------------|-------------------|
    -------------------|----------------------------|-------------------|
    -------------------|----------------------------|-------------------|



    -------------------8----7--|-----------8----7----------|
    ------------7--10----------|----7--10------------------|
    ---------------------------|---------------------------|
    ---------------------------|---------------------------|
    ---------------------------|---------------------------|
    ---------------------------|---------------------------|



    --7---------8----7-----------|--8--5--0--8--5--8--7-----7--7-----7--|
    -----7--10-------------------|-----------------------8--------8-----|
    --------------------9--------|--------------------------------------|
    -----------------------------|--------------------------------------|
    -----------------------------|--------------------------------------|
    -----------------------------|--------------------------------------|



    --5-----5--5-----5--7-----------------|--8--5--0--8--5--8--7-----7--7--5--7--|
    -----7--------8--------8--5--8--5--8--|-----------------------8--------------|
    --------------------------------------|--------------------------------------|
    --------------------------------------|--------------------------------------|
    --------------------------------------|--------------------------------------|
    --------------------------------------|--------------------------------------|



    --5--------5---------------------|--7--7----7--7----8---7----7-------|
    -----7--8-----8--7--5---------8--|--8--8----8--8----10--8----8-------|
    ---------------------------9-----|------------------------------9----|
    ---------------------------------|-----------------------------------|
    ---------------------------------|-----------------------------------|
    ---------------------------------|-----------------------------------|



    --8---7----7-------5------------|--5--5----5--5--5h7---5--5----5----|
    --10--8----8-------7---------7--|--7--7----7--7--7-----7--7----7----|
    --------------9-----------8-----|-----------------------------------|
    --------------------------------|-----------------------------------|
    --------------------------------|-----------------------------------|
    --------------------------------|-----------------------------------|



    --7--5----5/-2--3----0--------|-------------------|----------7----7----|
    --8--7----7/-4--5-------0-----|-------------------|----------7----7----|
    ---------------------------0--|-------------------|----------8----8----|
    ------------------------------|--2----------------|--------------------|
    ------------------------------|-------------------|--------------------|
    ------------------------------|-------------------|--------------------|



    --7----7----7----7----|--7----7----7----------------|
    --7----7----7----7----|--7----7-------8----------8--|
    --8----8----8----8----|--8----8----------9----------|
    ----------------------|-----------------------9-----|
    ----------------------|-----------------------------|
    ----------------------|-----------------------------|



    -------------8--7-----------|--7--------7-----------7--------|
    -------------------8-----8--|-----8--------8-----------------|
    --9-------------------9-----|--------9--------9--8-----------|
    ----------------------------|--------------------------------|
    ----------------------------|--------------------------------|
    ----------------------------|--------------------------------|



    --7--------------------------|-----------------------|
    -----------8--7--5-----------|-----------------------|
    --------------------8--6--4--|------4----4-----------|
    -----------------------------|--------------2--------|
    -----------------------------|-----------------------|
    -----------------------------|-----------------------|



    --8--5--0--8--5--8--7---------7--|--5---------5-----------|
    -------------------------8-------|-------7-------8--------|
    ---------------------------------|------------------------|
    ---------------------------------|------------------------|
    ---------------------------------|------------------------|
    ---------------------------------|------------------------|



    --8--5--0--8--5--8--7-----7--7-----7--|--5--------5--------|
    -----------------------8--------8-----|-----7--8-----8--7--|
    --------------------------------------|--------------------|
    --------------------------------------|--------------------|
    --------------------------------------|--------------------|
    --------------------------------------|--------------------|



    --------------------12--------------------|
    --5----12----8--12------12--8--12--0--12--|
    ------------------------------------------|
    ------------------------------------------|
    ------------------------------------------|
    ------------------------------------------|



    --11---------------------11---------------------|
    ------12--10--12--0--12------12--10--12--0--12--|
    ------------------------------------------------|
    ------------------------------------------------|
    ------------------------------------------------|
    ------------------------------------------------|



    --12--------------------12--------------------|
    ------12--8--12--0--12------12--8--12--0--12--|
    ----------------------------------------------|
    ----------------------------------------------|
    ----------------------------------------------|
    ----------------------------------------------|
     
  3. 6String_assasin

    6String_assasin The Painkiller

    --11-----------------11-----------------------|
    ------12--10--12--0------10--12--0----10--12--|
    ----------------------------------------------|
    ----------------------------------------------|
    ----------------------------------------------|
    ----------------------------------------------|



    -----12------------12------------12---------|
    --0------8--12--0------8--12--0------8--12--|
    --------------------------------------------|
    --------------------------------------------|
    --------------------------------------------|
    --------------------------------------------|



    --10------10--8------8--7-----7--5-----7--|
    ------12---------10--------8--------7-----|
    ------------------------------------------|
    ------------------------------------------|
    ------------------------------------------|
    ------------------------------------------|



    --3-----3--2-----2--0-----0-----------|---------------------------------------|
    -----5--------3--------3-----3--0--1--|--0----0-----0--1-0--------------------|
    --------------------------------------|----------2---------2-0----2-0---------|
    --------------------------------------|------------------------4------4-2-0---|
    --------------------------------------|-------------------------------------3-|
    --------------------------------------|---------------------------------------|



    -------------------------|---------------------------|
    ---------------0----0----|--4--5--7--------0----0----|
    -------------------------|---------------------------|
    -------------------------|---------------------------|
    --2----------------------|---------------------------|
    -------------------------|---------------------------|



    ---------------------------|--------------7--5--3--2--|--0----------------|
    --5--7--8--------0----0----|--4--5--7--0--------------|-------------------|
    ---------------------------|--------------8--6--4--2--|--0----------------|
    ---------------------------|--------------------------|-------------------|
    ---------------------------|--------------------------|-------------------|
    ---------------------------|--------------------------|-------------------|



    ------------------|----------7-8-7---------------|-------------------|
    ------------------|------------------10--7-------|-------------------|
    ------------------|-------------------------8----|-------------------|
    ------------------|------------------------------|--7----------------|
    ------------------|------------------------------|-------------------|
    ------------------|------------------------------|-------------------|



    ------------------7--|--7------------7----|--7---------8--7--------|
    ---------------------|--------------------|-----8--10--------------|
    ---------------------|--------------------|------------------------|
    ---------------------|--------------------|------------------------|
    ---------------------|--------------------|------------------------|
    ---------------------|--------------------|------------------------|



    --7----------------|-----------------------|--8----------8----7---------7----|
    -------------------|--8--------------------|-------10-------------------8----|
    -------------------|-------8--11--9--------|-----------------------9---------|
    -------------------|-----------------------|---------------------------------|
    -------------------|-----------------------|---------------------------------|
    -------------------|-----------------------|---------------------------------|


    --5---------5----7---------7----|---------8-----8-----------7----7----|
    ------------7--------------8----|-----10--10----10-------8--8----8----|
    -------8--------------9---------|--9------------------9---------------|
    --------------------------------|-------------------------------------|
    --------------------------------|-------------------------------------|
    --------------------------------|-------------------------------------|



    --------5----5----------7----7----|-----8-------8--------7------7----|
    -----4--4----4-------8--8----8----|-----10------10-------8------8----|
    --4---------------9---------------|--9----------------9--------------|
    ----------------------------------|----------------------------------|
    ----------------------------------|----------------------------------|
    ----------------------------------|----------------------------------|



    -----5------5-------7------7----|-----8-------8--------7------7----|
    -----7------7-------8------8----|-----10------10-------8------8----|
    --8--------------9--------------|--9----------------9--------------|
    --------------------------------|----------------------------------|
    --------------------------------|----------------------------------|
    --------------------------------|----------------------------------|



    -----5------5----|
    -----7------7----|
    --8--------------|
    -----------------|
    -----------------|
    -----------------|



    |---12-12-12-12-12-12-12-12-12-12-12-12-12-12-12-12-12-12-12-12-12-12-12-12-12-1
    |-------------------------------------------------------------------------------
    |*------------------------------------------------------------------------------
    |*------------------------------------------------------------------------------
    |-------------------------------------------------------------------------------
    |-------------------------------------------------------------------------------



    --12----------------||
    --------------------||
    --------------------||
    --------------------||
    --------------------||
    --------------------||


    :rockon:
     
  4. Asad7950

    Asad7950 New Member

    THANXS alot PAINT KILLER hey can u send me the tabs for TOM & JERRY KIDS cartoon them

    THANXS alot PAINT KILLER hey can u send me the tabs for TOM & JERRY KIDS cartoon theme song plz
     
  5. kaiser

    kaiser Bored

    hey 6 string!!1 if i aint wrong, the tabs u submitted includes those of the conter melody that keeps running throughout the song. yeah?

    n thats amazing man!!!! wehre did ya get them?

    thanks!!
     
  6. sam_rules

    sam_rules New Member

    super work
     
  7. BIG_EVIL

    BIG_EVIL Guitaring Machine

    V Well Done
     

Share This Page