DDLJ - Tujhe Dekha To Ye Jaana *COMPLETE* TABS Submission

Discussion in 'Hindi Guitar Tabs - Submit or Request' started by alaba, Jun 14, 2010.

  1. alaba

    alaba New Member

    HeY Guys ...

    this Is ANJaNEAI....

    The Most popular Of Hindi Romantic Songs... Shahrukh and Kajol .. made this song So Amazing .. that still amkes our hearts swing...

    ok Enuf Crap .. striaght to point...

    Here's My take on the song ...

    WATCH
    http://www.youtube.com/watch?v=pTUdAek0Bsk



    Tabs Coming real Soon!


    Leave a Comment..

    Thanks
     
  2. alaba

    alaba New Member

    Guyz.... what happend .. ah Tabs Coming up real Soon ...

    u need not buy words to comment .. So plz fel free to drop a few words ...


    n Haan plz VOLUme up While Listenin to video
     
  3. sandeepuae

    sandeepuae New Member

    Nice one..
     
  4. alaba

    alaba New Member

    @sandeep ... Thanks....

    Any Advice ... from Anyone???
     
  5. tika0614

    tika0614 New Member

    do u mind posting up the tabs?
     
  6. abhijeetraje

    abhijeetraje New Member

    Where are the tabs?
     
  7. ArindamSarkar

    ArindamSarkar New Member

  8. alaba

    alaba New Member

    @tika and abhijeet... Sorry for the delay .. but tabs coming right away .. shortly..

    @arindam... thanks!
     
  9. alaba

    alaba New Member

    Tabs Are as Follows And Sorry For Delay! :)

    e-------9-7-9--5-7-10-9---------9-79-5-7-5-4------2-4----2-4---2-5-4--2-4---2-4---5-4-2
    b--777---------------------777----------------------------5-----5-------------5------5-------


    e-------9-----------
    b-9-10---9--9-10-9 repeat twice

    e-
    b-7-9-10--7----10-9
    g-------------8------ repeat twice

    e---------------------------------------7-7--5-7-54---------
    b-9-7-9---------9-7-9------7----77-7---------------7-54---
    g--------9-66-----------8-9--------------------------------6



    Tujhe Dekha To ye Jana Sanam Line With a Stretch
    e-----9-7-9--5-7-10-9-------9-79-5-7-5-4---2-4----2-4---2-5-4--45-7-12-10-9-757-9-7542
    b-777---------------------777----------------------------5-----5-------------------------------
     
  10. dhaneshmane

    dhaneshmane New Member

    thx for sharing it sounds nice
     

Share This Page