Ddlj Cule Tabs!!!!

Discussion in 'Hindi Guitar Tabs - Submit or Request' started by GuItAr_GOD, Aug 1, 2005.

  1. GuItAr_GOD

    GuItAr_GOD New Member

    HERE R THE TABS FOR DDLJ SONG!!!!!! THOSE R TOOO CULE MAN!!!! GO.....ROCK ON!!! :rock:
    E--------------------------------------------------------
    B---------------------------------------------------------
    G--333----5--3-5------3--6--5-----------------------
    D--------------------5-----------------------------------
    A---------------------------------------------------------
    E---------------------------------------------------------


    E---------------------------------------------------------
    B---------------5--3--5---------------------------------
    G--3--0--3----------------7--5--4--------------------
    D--------------------------------------------------------
    A---------------------------------------------------------
    E---------------------------------------------------------

    E---------------------------------------------------------
    B---------------------------------------------------------
    G----2--4--0---2----4--0----2--5--4-----------------
    D---------------------------------------------------------
    A---------------------------------------------------------
    E---------------------------------------------------------

    E---------------------------------------------------------
    B---------------------------------------------------------
    G-----2--4--0--2----4--0----5--4--2-----------------
    D---------------------------------------------------------
    A---------------------------------------------------------
    E---------------------------------------------------------
    POST QUICK REPLIES :rule:
     
  2. bhardwaj24

    bhardwaj24 New Member

    i'll give u easier tabs. i am going to tab them right now adn have them for you soon.
     

Share This Page