Counter Strike: GO theme guitar tab

Discussion in 'English Guitar Tabs - Submit or Request' started by Rakeshblade05, May 26, 2015.

  1. Rakeshblade05

    Rakeshblade05 New Member

    Saw a video on youtube (https://www.youtube.com/watch?v=EIawoWJd7cg)
    searched tabs! but found nothing. So i tabbed from that video. Thought i could share it so..... ENJOY!

    I part
    e|------8-9-8--|
    B|--6-6--------|
    G|-------------| x10
    D|-------------|
    A|-------------|
    E|-------------|

    II part
    e|--9/12-8-9-8--|
    B|--------------|
    G|--------------|
    D|--------------|
    A|--------------|
    E|--------------|

    Repeat: I part x5(for the fifth time, play the 6th fret again on 'B' string as below)
    e|------8-9-8---|
    B|--6-6-------6-|
    G|--------------|
    D|--------------|
    A|--------------|
    E|--------------|

    III part
    e|------------------------------------------12-11-9-------------------|
    B|--6-9-11-13-9-8-----11-13-14-18-14-13-------------9-11-11b-14-14b---|
    G|--------------------------------------------------------------------|
    D|--------------------------------------------------------------------|
    A|--------------------------------------------------------------------|
    E|--------------------------------------------------------------------|

    IV part
    e|----------------------------------|
    B|--18v-14-15b-15v-14-13--13-13-13--|
    G|----------------------------------|
    D|----------------------------------|
    A|----------------------------------|
    E|----------------------------------|

    V part
    e|------------------------------|
    B|--14-15b-15v-14-13--13-13-13--|
    G|------------------------------| x3
    D|------------------------------|
    A|------------------------------|
    E|------------------------------|

    Repeat: III part x1
     

Share This Page