Correct Sab Bhula Kai Intro

Discussion in 'Pakistani Guitar Tabs - Submit or Request' started by ahm3d_nad33m, Mar 22, 2006.

  1. ahm3d_nad33m

    ahm3d_nad33m New Member

    One Thing that has been irritating me is the intro of sab bhula kai. and the tabs posted for it, that have been universally accepted, make that song a step up, hence making the chords A G D C#m (verse) but if you play along with the actual song u find out that the intro, though it might sound right, but when played along with the song, it is way off. Because you notice that the first note is G (5th fret on D, 10th on A), hence proving the song is on D. So in lieu of that i post my correct version of the tab.

    TUNING: DADADD

    D[------------------------------------------------------------------]
    D[------0------------------------------0----------------------------]
    A[----0--0--10----9----12----------0---0--12----10-----9----------]
    D[---9-9--9---9----9-----9-------11-11--11--11----11----11--------]
    A[-10-----------10--10----10---12-------------12-----12----12-----]
    D[------------------------------------------------------------------]

    Just PLay Along with the song and listen

    Verse Chords are:
    D (0,5,4,0,0,0)
    C (0,3,2,0,0,0)
    G (0,10,9,0,0,0)
    F#m (0,9,7,0,0,0)
    play them arpeggio-ed
    CHORUS
    Bm (9,9,9,0,0,0)
    A (7,7,7,0,0,0)
    G (5,5,5,0,0,0)

    JUST PLAY ALONG WITH THE SONG, ITS RIGHT!!
     
  2. slipknot_555

    slipknot_555 RuHH..

    eerrrrrr. i dont think tht this song is on this tuning( is it double drop d?? )
     
  3. ahm3d_nad33m

    ahm3d_nad33m New Member

    dude just try playing the other intro tabs along with the song, and these.....
     
  4. limaj_daas

    limaj_daas Guitar Pro Maniac

    Hmmm... Ahmed's quite right but i gotta confirm this wid Xulfi...
     
  5. slipknot_555

    slipknot_555 RuHH..

    hey if u gonna confirm it thn juss bring out the whole album tabs!!! :) by the way how do u know xulfi??
     
  6. limaj_daas

    limaj_daas Guitar Pro Maniac

    U think i haven't tried askin him for the album tab. U know whenver he comes online i bug him to death about tabs. He'd never tell me anything :( But yah he did tell me that the shayad acoustic is on a different tuning than usual. But again, he never tell's me the exact thing. EVER, he'd say i: "I can only show that 2 ya in real life". Oh and i know him through Faisal Nasim.
     
  7. slipknot_555

    slipknot_555 RuHH..

    hmmmm.y hez actin like ttht??? y he doesnt wanna play us his songs??? lol!!!

    hey dude whoz faisal nasim??? can u gimem xulfi id :think: ??? m a big fan of xulfi :nw:
     
  8. limaj_daas

    limaj_daas Guitar Pro Maniac

    Lots a questionz eh? Well, first of all, he barely ever comes on msn, like once a week of summin. And i'm not givin up that easy! I'll come out wid da album :p And faisal nasim's the dude whoz running http://www.loudcult.com and i'm one of da main ppl who suppplies him vdoz etc.. About the Id...... hmmm, i'm not sure if the mod's will allow me to put it up on the forums...
     
  9. limaj_daas

    limaj_daas Guitar Pro Maniac

    "Reason: No sites providing Mp3's/Videos allowed to be posted"

    How come? THis one's official...
     
  10. ahm3d_nad33m

    ahm3d_nad33m New Member

    limajdaas thanks for teh info on teh fifth fret, ive worked it out. The songs on open dsus4 tuning (DADGAD), which is dropped D tuning with teh frist two strings tuned down a step.
    [open in notepad for proper formattin]

    D[-----0--5--4--7---------0--7--5--4-----------------]
    A[---0--0--0--0--0------0--0--0--0--0----------------]
    G[--4-4--4--4--4--4----6-6--6--6--6--6---------------]
    D[-5------------------7------------------------------]
    A[---------------------------------------------------]
    D[---------------------------------------------------]

    D[-----0------0-------0--0-------0--0----------------]
    A[---0--0---0--0----0--0--0----0--0--0---------------]
    G[--4-4--4-4-4--4--6-6--6--6--6-6--6--6--------------]
    D[---------------------------------------------------]
    A[---------------------------------------------------]
    D[-5------5-------7----------7-----------------------]
     
  11. rizaaj

    rizaaj Forum Leader


    is it so... i thought http://www.thebandcall.com was the official one :eek::

    PM me the link of the site again.. i really wanna see...:nw:
     
  12. rizaaj

    rizaaj Forum Leader

    okay.. thanks for the pm.. links back on...
     
  13. slipknot_555

    slipknot_555 RuHH..

    hmm k dude can u pm me his id ??? :think:
     

Share This Page