COMPLETE TABS : Sutta na mila ( Zeest ) XLRI song

Discussion in 'Hindi Guitar Tabs - Submit or Request' started by shantanukr, Dec 15, 2005.

  1. shantanukr

    shantanukr yEh DiL mAanGe m0rE

    Inspired by knight_guitar CHORDS .. Here i present the
    TABS of country (engg. colleges) rocking song SUTTA na mila.


    *************************************
    Song Name : Sutta na mila
    Band : Zeest

    Tabbed By : S.h.a.n.t.a.n.u. .K.r.
    **************************************

    E--0------------------------------------
    B-----3-1-3-1--1-1------1-1-3-1---
    G----------------------0-2-------------

    Doston main baita main sutta pee raha

    E--0------------------------------------
    B-----3-1-3-1--1-1------1-1-3-1---
    G----------------------0-2-------------

    Papa ne mujkho Sutta peete dekh liya

    E--0------------------------------------
    B-----3-1-3-1--1-1------1-1-3-1---
    G----------------------0-2-------------

    Ghar jaake mujkho Phir Danda ho gaya.


    [Chorus]


    E--0---------------------------------
    B-----3-1-3-1--1-1------1-3-1---
    G----------------------0-2----------


    B*****C****** Sutta mujkho Sutta na milla [X3]


    [Slow in Last]

    E--0---------
    B----1--3-1--
    G------------

    B*****C****** M*****C****** [x many times]

    E---------------
    B-------1-3-1-
    G--0-2---------

    Sutta na milla

    :beer:
     
  2. knight_guitar

    knight_guitar Lead Guitarist

    Dude Zeest is a pakistani band.. .. XLRI people said that it's there lyrics.. but orignally sang by "zeest" which is a pakistani band (underground)
     
  3. noiseofstrings

    noiseofstrings New Member

    pls post ZEEST (Sutta) CHORDS

    guys can annyone of u post the CHORDS of SUTTA NAA MILA of ZEEST(XLRI Band)
     
  4. amit82cse

    amit82cse Silent observeR

    recently i have heard their another composition "XL ki kudiyan"... quite impressive :)
     
  5. anshphenomenon

    anshphenomenon Rape me :boff:

    ^^yeah..
    its a good song..
    its not recent though..
    it was out abt 5 months back..
     
  6. knight_guitar

    knight_guitar Lead Guitarist


    http://www.indianguitartabs.com/showthread.php?t=16663&highlight=zeest ... there u go dude.. full chords with intro tabs of zeest sutta song


    @ amit , "xl di kudiyan" is by bondhi tree, not be zeest dude.. (ZEsst is karachi based pakistani band)
     
  7. har1s

    har1s <b>Untitled</b>

    ^^right... zeest is a paki band
     

Share This Page