Complete Tabs for tamil songs!!

Discussion in 'Tamil Guitar Tabs - Submit or Request' started by myrules, Nov 22, 2013.

  1. myrules

    myrules Member

    Hi All,

    I would like to start this thread for beginners. We know that sathya doing fabulous job by providing tabs for many tamil songs. But, as he mainly concentrating on IR sir songs and other old songs, we can contribute from our end by providing tabs for the songs other than he posted in this forum.

    I guess everyone will be having notes for some songs to practise ourself. Either its ur own tabs or you learned it from your master, not at all a problem just post it here. If we work together, we can get more songs. It ll encourage everyone to play more.

    I dont know it ll work or not. But, try to be a part of this thread. We all share here, learn here and grow together.

    From my side, I would post all the tabs here which I know or I learned it from my master.

    So lets, start this.

    Regards,
    Myrules
     
  2. Rakeshblade05

    Rakeshblade05 New Member

    i will contribute some tabs from my side.
    i am with you.
     
  3. myrules

    myrules Member

    Thanks rakesh,

    I have some tabs, But I dont know how to put here.. any suggestions from anyone?
     
  4. myrules

    myrules Member

    Here we go, Kanmani anbodu song from the movie guna.. And this is one of the song, I learned from my master Mr.Srikanth.

    Kanmani Anbodu Kaathalan Naan Ezhuthum Kadithamae..
    E---------------------------------------------------------------
    B-7-8-10---10-10-10-----7-8-7--------------7-7\5----------
    G---------------------------9---------7-6-7------------------

    Pønmani Un Veetil Šøwkiyama Naan Ingu Šøwkyamae..
    E---------------------------------------------------------------
    B-7-8-10---10-10-10-----7-8-7---------------7-7\5----------
    G---------------------------9---------7-6-7------------------

    Unna Ènni Paarkaiyil Kavithai Køttuthu..
    E---------------------------------------------------------------
    B----------7----7-7,------------------------------------------------
    G-7-6-7------9--------7-6-7-7-7/5-----------------------------------------


    Atha Èzhutha Ninaikaiyil Vaarthai Muttuthu..
    E---------------------------------------------------------------
    B----------7----7-7,------------------------------------------------
    G-7-6-7-----9--------7-6-7-7-7/5----------------------------------

    Kanmani Anbøda Kaathalan Naan Èzhuthum Kadithamae..
    E---------------------------------------------------------------
    B-7-8-10---10-10-10-----7-8-7--------------7-7\5----------
    G---------------------------9---------7-6-7------------------


    Pønmani Un Veetil Šøwkiyama Naan Ingu Šøwkyamae..
    E---------------------------------------------------------------
    B-7-8-10---10-10-10-----7-8---7--------------7-7\5----------
    G-----------------------------9---------7-6-7------------------

    Stanza :

    Undaana Kaayamengum Thannaalae Aaripøna Maayam Ènna Pønmaanae Pønmaanae..
    E-10-10-9-7-9-12-10,-9-9-12-10-9-7-------------------7-----7-9-7-9-10-------
    B---------------------------------------10-8-7,-7-8-10----10----------------------
    G-------------------------------------------------------------------------------------------------

    Ènna Kaayam Aana Pøthum Èn Maeni Thaangi Køllum Unthan Maeni Thaangaathu Šenthaenae
    E-10-10-9-7-9-12-10,-9-9-12-10-9-7----------------------7-----7-9-7-9-10-------
    B------------------------------------------10-8-7,-7-8-10----10----------------------
    G-------------------------------------------------------------------------------------------------

    Ènthan Kaathal Ènnavendru Šøllaamal Aenga Aenga Azhugai Vanthathu..
    E-----------------------7-------------7-------------------------
    B-10-10-10-9-10-----10,-9-9-----10-9-7-------7-----7-8---
    G-----------------------------------------------9,-9------9----

    Ènthan Šøgam Unnai Thaakkum Ènrennumbøthu Vantha Azhugai Nindrathu..
    E-----------------------7-------------7-------------------------
    B-10-10-10-9-10-----10,-9-9-----10-9-7-------7-----7-8---
    G------------------------------------------------9,-9----9----

    Manithar Unarnthu Kølla, Ithu Manitha Kaathal Alla Athaiyum Thaandi Punithamaanathu..
    E-7-7-----------------9-9-7---------7-7-7--7-9-7-9-10---------------------
    B-------10-8-7,--7----------10-8,-----------------------------------------
    G---------------------------------------------------------------

    Abiraamiyae Thaalaattum Šaamiyae Naanthaanae Theriyumaa?
    E---------------------------------------------------------------
    B-7-8-10---10-10-10-----7-8---7---------------7-7\5----------
    G-----------------------------9---------7-6-7------------------

    Šivagaamiyae Šivanil Neeyum Paathiyae Athuvum Unnakku Puriyumaa?
    E---------------------------------------------------------------
    B-7-8-10---10-10-10-----7-8---7--------------7-7\5----------
    G-----------------------------9---------7-6-7------------------

    Šuba Laaliyae Laaliyae Laali Laaliyae
    E---------------------------------------------------------------
    B----------7----7-7,------------------------------------------------
    G-7-6-7------9------7-6-7-7-7/5-----------------------------------------

    Abiraami Laaliyae Laali Laaliyae
    E---------------------------------------------------------------
    B----------7----7-7,------------------------------------------------
    G-7-6-7------9-------7-6-7-7-7/5-----------------------------------------

    Credits,
    Mr.Srikanth

    Regards,
    Pradeep
     
  5. sathish lion

    sathish lion New Member

    machi inum ena kanmani ,kaney maniye konjam latest trend vanga ..
     
  6. Super-Admin

    Super-Admin Administrator Staff Member

    It's a very good initiative.

    But I see one problem here, as the length of the thread grows, it'll become difficult for any new user to search through the posts to find chords of songs they are looking for.

    We'll do one thing, we'll figure out a way to contribute tabs in a structured manner.

    I'll update you guys soon on how to go about it.
     
  7. sathish lion

    sathish lion New Member

    hi machi its me sathish ... .

    watch this and tell how is it ..
    Ethir Neechal guitar tabs - YouTube

    Boomi Enna Suthuthey
    7---5----4---3----3—5---7
    Ooma Nenju Kathuthey
    7---5----4—3---3----7---5
    En Munnadi Sukuran
    7----5--4---3----3—5---7
    Kaiya Katti Nikkuthey
    7---5---4---3--3—7---5

    Damage Aana Piece'su Naane
    0----7------5---3—0---7-----5---3
    Joker Ipo Hero Aanae
    0---3---57---5-3---1--0
    Kaanja Mannu Eeram Aanaen..
    0----7------5---3—0---7-----5---3
    Saanja Thoonu Nera Aanaen..
    0---3------5----7---5-3---1--0

    Hey Ennoda Paeru Seeraanathu
    5~7—7-7—8---7---5---3---5—7--6
    Hey Ennoda Paatha Naeraanathey
    5~7—7-7—8---7---5---3---5—7--4
    Hey Zero'vum Ippo Nooraanathey..
    5~7—7-7—8---7---5---3---5—7--4
    Ada Nooraanathey..
    3-5---7---7---8-----7

    Hey Ennoda Paeru Seeraanathu
    5~7—7-7—8---7---5---3---5—7--6
    Hey Ennoda Paatha Naeraanathey
    5~7—7-7—8---7---5---3---5—7--4
    Hey Zero'vum Ippo Nooraanathey..
    5~7—7-7—8---7---5---3---5—7--4
    Ada Nooraanathey..
    3-5---7---7---8-----7

    Santhu Pakkam Pogalaam
    9---7------5----3----3—5----7
    Panju Mittai Vaangalaam
    9---7----5—3---3----7----5
    Beachchu Pakkam Pogalaam
    9---7------5----3----3—5----7
    Ranga Raatinam Suththalaam
    9---7----5—3—5----3----7----5

    Vaazhka Mella Mella Okay Aanathey
    5-----7----5---3----5--3-3—5—3—1-3
    Jødi Vanthu Ippø Jølly Aanathey
    5---7----5---3-5--3--3—5—3-1-3
    Bike Ride'du Køøda Happy Aanathey
    5--7----5---3----5--3---3—5—--3—1-3
    Kaalam Vanthathey Gethu Aanathey
    5---7------5----3----5---3—5---3---1---3..

    Vaazhka Mella Mella Okay Aanathey
    5-----7----5---3----5--3-3—5—3—1-3
    Jødi Vanthu Ippø Jølly Aanathey
    5---7----5---3-5--3--3—5—3-1-3
    Bike Ride'du Køøda Happy Aanathey
    5--7----5---3----5--3---3—5—--3—1-3
    Kaalam Vanthathey Gethu Aanathey
    5---7------5----3----5---3—5---3---1---3..



    Èngeyø Pøgum Kaaththu
    5----7--5---7---9----10----9
    Ipø Èn Jannal Pakkam Veesum
    7-5--5---7-----5—7---9----10----9-
    Èn Køøda Pørantha Šaabam
    5----7----5---7---9—10—9--10
    Ipø Thannaalayae Theerum.
    7-5---5---7—5—7-----9-----8
    .

    Damage Aana Piece'su Naane
    0----7------5---3—0---7-----5---3
    Joker Ipo Hero Aanae
    0---3---57---5-3---1--0
    Kaanja Mannu Eeram Aanaen..
    0----7------5---3—0---7-----5---3
    Saanja Thoonu Nera Aanaen..
    0---3------5----7---5-3---1—0


    Boomi Enna Suthuthey
    7---5----4---3----3—5---7
    Ooma Nenju Kathuthey
    7---5----4—3---3----7---5
    En Munnadi Sukuran
    7----5--4---3----3—5---7
    Kaiya Katti Nikkuthey
    7---5---4---3--3—7---5

    video lesson venuna solung potralam

    by sathish lion ...
     
  8. myrules

    myrules Member

    Sathish,

    Its not about old songs or new songs, I could provide only what I have. If u or any one have tabs for any new song, U can put here.

    Anyway, thanks for your addition.

    Pradeep
     
  9. myrules

    myrules Member

    Admin,

    Thank you for your support and we are waiting for your update.

    Pradeep,
     
  10. sathish lion

    sathish lion New Member

    mams .. apdi illa ... ipa easy a kanmani , and all ithupola kedakithu. .. atha sona .. dont mistake me ... mama
     
  11. krish aadhi

    krish aadhi New Member

    nce chrds bro.awesome.it s mst hlpfl fr me..
     

Share This Page