Complete Intro : Tere Bina by Fuzon

Discussion in 'Pakistani Guitar Tabs - Submit or Request' started by aysh, Jul 4, 2005.

  1. aysh

    aysh -|h3 ori9in4| (ui!aris-|-

    hi ppl ive worked out the intro for tere bina by fuzon and am posting it.. plz do comment :aggre:
    Play both guitars in sync .. one on leads the othere on rhythm

    HTML:
    song: Tere Bina
    band: Fuzon
    tabbed by: nemo
    
    chords used : Dsus2(000230) , Dsus4(000233) , D7(000212)
    
    
    Guitar1
    e-------------------------------------------
    B--3s10-10---8-7-7-----7s8-7--5s7-5-3-------
    G-------------------------------------------
    
    Guitar2
       (Dsus2)  ( D7 )    (Dsus4)  (D7)    
    e---0---0----2-2-2------3--3---2-2-2-----------
    B---3---3----1-1-1------3--3---1-1-1-----------
    G---2---2----2-2-2------2--2---2-2-2-----------
    D---0---0----0-0-0------0--0---0-0-0-----------
    A---0---0----0-0-0------0--0---0-0-0-----------
    E---0---0----0-0-0------0--0---0-0-0-----------
    
    
    Guitar1
    e-------------------------------------------
    B--3s10-10---8-7-7-----5s7-10--8-7-7-------
    G-------------------------------------------
    
    Guitar2
    
    e---0---0----2-2-2------3--3---2-2-2-----------
    B---3---3----1-1-1------3--3---1-1-1-----------
    G---2---2----2-2-2------2--2---2-2-2-----------
    D---0---0----0-0-0------0--0---0-0-0-----------
    A---0---0----0-0-0------0--0---0-0-0-----------
    E---0---0----0-0-0------0--0---0-0-0-----------
    
    
    Guitar1
    e------10--10s12-10-10--------------------------
    B--7-8--------------------8s10-10--10s12-10-10--
    G-----------------------------------------------
    
    Guitar2
    e--2-3-10-----12-10-10----5----5-----7----5--5--
    B--1-3-10-----12-0--0-----5----5-----7----5--5--
    G--2-0-0------0--0--0-----0----0-----0----0--0--
    D--0-0-0------0--0--0-----0----0-----0----0--0--
    A-----------------------------------------------
    E-----------------------------------------------
    
    
    Guitar1
    e-------------------------------------------
    B--3s10-10---8-7-7-----7s8-7----------------
    G-----------------------------9s11-9-7------
    
    Guitar2
    e---0---0----2-2-2------3--3---2-2-2-----------
    B---3---3----1-1-1------3--3---1-1-1-----------
    G---2---2----2-2-2------2--2---2-2-2-----------
    D---0---0----0-0-0------0--0---0-0-0-----------
    A---0---0----0-0-0------0--0---0-0-0-----------
    E---0---0----0-0-0------0--0---0-0-0-----------
    
    
    Guitar1
    e------10--10s12-10-10----7s8-7----5s7-5-5---
    B----8---------------------------------------
    G--7-----------------------------------------
    
    Guitar2
    e--2-3-10-----12-10-10----8---7-----7--5--5--
    B--1-3-10-----12-0--0-----8---7-----7--5--5--
    G--2-0-0------0--0--0-----0---0-----0--0--0--
    D--0-0-0------0--0--0-----0---0-----0--0--0--
    A-----------------------------------------------
    E-----------------------------------------------
    
    
    
    short n fast leads into the song..
    
    e--------------------7-5---3-5s0------------------
    B------------5s3---5-----7-----------------------
    G--5-7s4---4-------------------------------------
    
    e-------------------------------------------
    B--3-5s3--3s1--3-3p0-----------------------------------
    G---------------------5s4--2--0------------------
    
    
    tere bina .. 
     (u know the chords for stanzaas are D , Cadd9 , G )

    hope u enjoy them .. !

    p.s - i can post the audio if ne1 wants
     
    sixstringsin and rizaaj like this.
  2. aysh

    aysh -|h3 ori9in4| (ui!aris-|-

    no replies .. any problem ppl :( i mean this is so damn accurate .. besides not many here cud have tabbed this out

    cmon ..
     
  3. Quadrophenia

    Quadrophenia New Member

    hey man nemo..just checked out the chords..looking good. could u post the recording too? thatd be great.
    cheers
     
  4. amirsimsibshako

    amirsimsibshako New Member

    yes chords sounds good.it will be good if u post the recording also,,chords r gr8.
     
  5. aysh

    aysh -|h3 ori9in4| (ui!aris-|-

  6. rizaaj

    rizaaj Forum Leader

    great work nemo... reps comin ur way dude...

    keep posting
     
  7. aysh

    aysh -|h3 ori9in4| (ui!aris-|-

    thx man :D
     

Share This Page