complete intro guitar tab of raaba from heropanti

Discussion in 'Hindi Guitar Tabs - Submit or Request' started by love pranis, Sep 24, 2015.

  1. love pranis

    love pranis New Member

    could anyone please provide me the complete intro tab of the song raaba from heropanti. i couldn't get it anywhere in the internet
     
  2. fishtank

    fishtank Member

    INTRO ARP
    E------------2---------------------------2---------------
    B---------------4-----4--------------4-------4-----4-----
    G--------4---------4--------------4------------4---------
    D-----4------------------------4-------------------------
    A--2-----------------------------------------------------
    E--------------------------------------------------------


    E-----------4---------------------4----------------------
    B--------4-----4-----4---------4-----4-----4-------------
    G-----4-----------4---------4-----------4----------------
    D--6---------------------6-------------------------------
    A--------------------------------------------------------
    E--------------------------------------------------------

    E------------0-------------------------2-----------------
    B---------------0-----0-------------------2-----2--------
    G--------1---------1---------------3---------3-----------
    D-----2------------------------4-------------------------
    A--------------------------------------------------------
    E-0-----------------------2------------------------------

    E------------2---------------------------2---------------
    B---------------4-----4--------------4-------4-----4-----
    G--------4---------4--------------4------------4---------
    D-----4------------------------4-------------------------
    A--2-----------------------------------------------------
    E--------------------------------------------------------

    E------------0-------------------------0-----------------
    B---------------0-----0-------------------0-----0--------
    G--------1---------1---------------1---------1-----------
    D-----2------------------------2-------------------------
    A--------------------------------------------------------
    E-0-----------------------0------------------------------

    INTRO

    E--------------------------------------------------------------
    B--------------------------------------------------------------
    G--------------------------------------------------------------
    D--------------------------------------------------------------
    A------2--2--2--4--2-------2--2--2--4--2--------2--2--2--4--2--
    E--4-------------------4-------------------4-------------------

    E------------------------
    B------------------------
    G------------------------
    D--------------1---------
    A------2---4------4---2--
    E--4---------------------


    B-------------------------------E
    Thodi thodi katthai si uski aankhein



    E---4--6--7--6---4--
    B-------------------
    G-------------------
    D-------------------
    A-------------------
    E-------------------


    ----------------B
    Thodi surme bhari

    E-------------------
    B--4--5-5/6---------
    G-------------------
    D-------------------
    A-------------------
    E-------------------

    E--------------------------------------------------------------
    B--------------------------------------------------------------
    G--------------------------------------------------------------
    D--------------------------------------------------------------
    A------2--2--2--4--2-------2--2--2--4--2--------2--2--2--4--2--
    E--4-------------------4-------------------4-------------------

    E------------------------
    B------------------------
    G------------------------
    D--------------1---------
    A------2---4------4---2--
    E--4---------------------

    B-------------------------------E
    thodi-thodi katthai si uski aankhein
    ----------------B
    Thodi surme bhari

    Tabbed it in hurry so there may be errors, so corrections are always welcome :)
     

Share This Page