chords of socha na tha

Discussion in 'English Guitar Tabs - Submit or Request' started by crescent46, May 22, 2008.

  1. crescent46

    crescent46 New Member

    Socha Na Tha

    ---C---G---F---
    e--3-----------
    b--5---3---1---
    g--5---4---2---
    d--5---5---3---
    a------5---3---
    e--------------

    Male:

    C---------------------G,C
    Kabhi dil ke kareeb
    C---------------------G,C
    tumhe mere naseeb
    F------------------------------G,C | G,C
    Yun laayenge socha na tha

    C---------------------G,C
    Ek chahat ka pal
    C------------------------G,C
    sab savalon ka haal
    F-------------------------------G,C | G,C
    Yun paayenge socha na tha
    C
    Kabhi dil ke kareeb


    C-----------------------------------------G
    (Aankhein joh ab meri aankhon mein hain
    F--------------------G--------C
    Dhoond raha tha kayi salon se) - 2

    F----------------------G
    Kitni milti hain aankhein yeh
    F-----------------G----------C
    Khwabon se mere khayalon se

    C--------------------------G,C
    Ke haqeqaat mein hum
    C------------------G,C
    sapno ka sanam
    F-------------------------------G,C | G,C
    Yun paayenge socha na tha
    C-----------------------G,C
    Kabhi dil ke kareeb
    C----------------------G,C
    tumhe mere naseeb

    Female:

    (Kabhi tanha bethe bethe yunhi
    Pal mein hi main ghum ho jaati thi) - 2
    Main bhi kahaan main rehti thi
    Aksaar main tum ho jaati thi
    yeh ajaab si khata, aur isski saza
    Yun paayenge socha na tha
    Kabhi dil ke kareeb, tumhe mere naseeb
    Yun laayegne socha na tha
    Ek chahat ka pal, sab savalon ka haal
    Yun paayenge socha na tha


    log on following link:
    http://www.hindisongs-lyrics.blogspot.com
     

Share This Page