Chords of sapnay(silk Route)

Discussion in 'Hindi Guitar Tabs - Submit or Request' started by billyboy, Jan 12, 2005.

  1. billyboy

    billyboy New Member

    Sapnay
    --------


    e----1-----1----------------------
    b---3-----3-----------4------4--
    g--3-----3-----------5------5-----
    d-3-----3-----------5------5------[2 Times]
    a------------------6------6-------
    e---------------------------------

    e--------------------------------
    b----3-------3--------------------
    g---3-------3---------------------
    d--5-------5-------------------------
    a-5-------5-----------------------
    E-------------------------------

    Gm----F-----Eb
    Gm----F-----Eb
    Gm----Cm----F

    Gm

    Gm-----------------Eb-
    Sapnay hai suni aakhen
    Gm-------------Eb
    jane kniu kho gay
    Gm------F------------------Cm-
    Socha tha sahil pe mile ga
    Cm------------Gm
    thahera sa ek pal
    F-----Gm
    ek pal

    E-----F-----Gm

    Gm-----------------Eb-
    Chandni hai ie raate
    Gm-------------Eb
    fir vi tute sitare
    Gm---F------------------Cm-
    dhundte hai ie zameepe
    Cm------------Gm
    thahera sa ek pal
    F-----Gm


    Gm------F--Eb--
    andheri dastaan
    Gm----F--Eb--
    kho gaye kahan
    Gm-----Cm---F--
    hum to rahe gay
    -----Gm
    fir wohi


    :rockon: :beer:
     
  2. anujroy

    anujroy New Member

    that was coool man !!! ...
     
  3. guitarboy_anand

    guitarboy_anand MAN WHO SOLD THE WORLD

    well done dude
    __________________
    >>----------> GO GET IT !
     
  4. jimmy_cool

    jimmy_cool The Coolest One!!

    what is Eb
     
  5. jim4u18

    jim4u18 New Member

    D# or Eb many ways to play tht
    x65343
    668886
    222343
     
  6. jayesh_diu123

    jayesh_diu123 New Member

    thanks
    silk route rocks
     
  7. saurabhmahobia

    saurabhmahobia New Member

    nys wrk dude :)
     
  8. afzal_tezu

    afzal_tezu New Member

    Nice word dude. Thanks :)
     

Share This Page