Chords Of Mera Pehla Pehla Pyar

Discussion in 'Hindi Guitar Tabs - Submit or Request' started by fishtank, Oct 17, 2007.

  1. fishtank

    fishtank New Member

    SONG: Mera Pehla Pehla Pyaar
    MOVIE: Mera Pehla Pehla Pyaar
    ARTIST: K.K

    D------------------------
    Na jaane kab yeh hua
    Na kisi ko khabar
    Na khud ko pata
    Bm------------------
    Khoye khoye rehte
    --------D
    Hum yahan hai
    Silsilo ka silsila hai
    Hua shuru abb jo nikle bhi jaan
    Bm--------------------D-------
    Abb se humraahi chahton ke
    -------------------A--
    Yeh jaise phela nasha.
    -------------Bm--------------G
    Woh pheli nazar phela gumaar
    Bm---------------------------D
    Yun lage mohabbat hi jahan hai
    Doston ki dosti yaaron ki yaari kam lagne lagi
    Bm---------------------------D
    Behke hai hum behka yeh sama hai

    Kaise samjhaau tumjhe
    D
    Mera phela phela pyaar hai yeh
    Bm
    o O OO O O
    D
    Aankhon mein aitbaar hai yeh
    Bm
    O Ooo oo O
    D
    Mera phela phela pyaar hai yeh
    Bm
    o O OO O O
    D
    Aankhon mein aitbaar hai yeh
    Bm---------A
    O Ooo oo O

    D
    Hawa bhi mili thi humein
    Jhokon mein pooch rahi thi
    Bm-----------------------------D
    Pyaar yeh agar nahi to phir kya hai
    Bm-------------------------D---------G
    Aye aasmaan tu bhi aajkal saang chalta hai
    ---A--------------------D
    Saaath leke chanda taare ..

    Kaise samjhaau tumjhe
    D
    Mera phela phela pyaar hai yeh
    Bm
    o O OO O O
    D
    Aankhon mein aitbaar hai yeh
    Bm
    O Ooo oo O
    D
    Mera phela phela pyaar hai yeh
    Bm
    o O OO O O
    D
    Aankhon mein aitbaar hai yeh
    Bm
    O Ooo oo O
    D
    Mera phela phela pyaar hai yeh
    Bm
    o O OO O O
    D
    Aankhon mein aitbaar hai yeh
    Bm---------A
    O Ooo oo O


    SOLO
    E------------------------------------------------------------------------------------------------------------------------------
    B-----------------------------------------17^-(HOLD)-17-(RELEASE)-15-17^~~--15-15-14/15--10-10-12/13-12~~--
    G----------------14/16-12-14-16-14----------------------------------------------------------------------------------------
    D-----------12----------------------------------------------------------------------------------------------------------------
    A--12-14----------------------------------------------------------------------------------------------------------------------
    E------------------------------------------------------------------------------------------------------------------------------


    E--------------------------------------------------------------------------------
    B--------------------------------------------------------------------------------
    G--2/4-4-4/6-6-6/7-7-7\4-0-2-4-2-0-0--------------------------------------
    D-----------------------------------------------4--2-0-2/4--0-----------------
    A-------------------------------------------------------------------------------
    E-------------------------------------------------------------------------------
     
  2. sid.chem.iit

    sid.chem.iit New Member

    The song begins in a A, so i think u need some retrospection.......
     
  3. maaani

    maaani New Member

    ur solo is looking gud but did'nt try yet .. iw ll try and than i will reply u wht i feel...
     
  4. maaani

    maaani New Member

    there r many mistakes in ur solo ....

    hi fishtank .... yar there r mistakes in ur solo .. try to recover it ...

    check this :



    e|--------------------------12b14-14r12-10-12/14~~-
    B|-----------------11-12-11------------------------
    G|---------9-11-12---------------------------------
    D|-9-11-12-----------------------------------------
    A|-------------------------------------------------
    E|-------------------------------------------------

    e|-10-10-9b10r9-----------------
    B|--------------10-10-12b13r12~~
    G|------------------------------
    D|------------------------------
    A|------------------------------
    E|------------------------------

    e|------------------------------------
    B|------------------------------------
    G|------------------------------------
    D|-5/7-7-7/9-9-9/12-12-12\5-7/9-7h9p7-
    A|------------------------------------
    E|------------------------------------

    e|-------------------------------------------|
    B|-------------------------------------------|
    G|-------------------------------------------|
    D|-7\4-4h5-4h5-7/9-7-------------------------|
    A|---------------------9h10-9-10-9----9~\5~~~|
    E|---------------------------------10--------|
     
  5. sheermelody

    sheermelody Pianist

    Chords not so correct - haven't tried the lead yet


    D--------------------------------------------------------Bm
    na jaane kab yeh hua, na kisiko ko khabar na khudko pata
    Bm--------------------------A-
    khoye khoye rehte hai hum yaha
    D------------------------------------------------------Bm
    Silsilon ka silsila hai hua shuru ab jo nikle bhi jaan
    Bm-----------------------A
    ab se hain humraahi chahaton ke
    D---------------------------------------------------------Bm
    yeh jaise pehla nasha, woh pehli nazar, woh pehla khumaar
    Bm----------------------A----
    kyu laage mohabbat hi jahan hai
    D----------------------------------------------Bm
    doston ki dosti yaaron ki yaari kam lagne lagi
    Bm-------------------------A----------G
    behke hain hum behka yeh samaan hai

    -------------------------D-------------------------Bm--------A-----
    kaise samjhau tujhe mera pehla pehla pyaar hai yeh ---- wo o wo o
    ---F#m----------Bm-----------G-------C---------
    aankhon main aitbaar hai yeh ---- wo o o o ---
    -----D-------------------------Bm--------A
    mera pehla pehla pyaar hai yeh ---- wo o wo o
    ---F#m----------Bm-----------G-------C--------C
    aankhon main aitbaar hai yeh ---- wo o o o ---
     
  6. rockymac2000

    rockymac2000 New Member

    @sheermelody - first impression - perfect.Thanks.
    Solo aint special , can play anything on bm and get away i guess...
     

Share This Page