chords of JAL(AAj Dil DukHa hai,main ek fard)

Discussion in 'Pakistani Guitar Tabs - Submit or Request' started by billyboy, Mar 3, 2005.

  1. billyboy

    billyboy New Member

    This's my first post ti pakistani guitar tabs



    Aaj dil dukha hai
    ------------------


    ----2---2-------0--0------
    -----3---3-------3--3-----
    --2---2---3---0---0--0--- x 2times
    -0-----------2------------
    -------------------------
    ----------------------

    G---G---G---A

    D-------G
    aaj dil dukha hai
    A--------D
    tum iyad aye
    D--------G
    Nam sare noor hai
    A----------------D
    apne knaha dhond paye


    D--------E-----
    jage hai soye nahi
    G-------------A-G-D
    aisi hai meri bechayni
    D
    din vi ohi
    E
    raat ohi
    G------------------A-G-D
    sanso me sanse vi hai nahi

    D-----Bm----G-----A--G--D
    hm hm hm hm hm hm hm hm hm





    D-------G
    same ab dhalti nahi
    A---------------D
    anchal jo tera simat jay
    D----------G
    aap ianha hameshe rahe
    A----------------D
    duri rahe na ho fasle


    D-----Bm----G-----A--G--D
    hm hm hm hm hm hm hm hm hm




    Main ek fard hoon
    ------------------

    P-1

    Em_________Em______G________D___________

    -----0--------0--------3--------2----------
    ----0-0------0-0--------3-----3--3-------
    ---0---0----0---0----0-------2-3--2-----
    --2-----2--2-----2--0-------0-------0----
    -2--------2--------2----------------------
    -0--------0--------3---------------------


    p-2

    A____________A______G_________G

    -----0--------0--------3-------3----
    ----2-2------2-2--------3-----0-3---
    ---2---2--------2----0-------0------
    --2-----2---2----2--0-------0-------
    -0---------0-------2-------2----------
    -------------------3-------3---------


    P-1
    main ek fard hoon

    iya ek ehesas hoon
    P-1
    main ekjism hoon

    iya rooh ki pyas hoon

    P-2
    ke sach ki talash hai

    door akash hai
    P-2
    manzil pas nahi
    ---------------------Em
    kya tu mere pas hai




    ------------Em
    kabhi main amar hoon
    --------------G----D
    kabhi beamar hoon
    ------------Em
    agar tujhme nahi
    --------------G----D
    to phir bemahal hoon

    --------------A----
    ke sach ki talash hai
    -------------G-----D
    door akash hai
    --------------A----
    manzil pas nahi
    -------------G-----D----Em
    kya tu mere pas hai


    check out the audio clip
     
  2. ImR@|\|

    ImR@|\| GuiTar MaNiaC

    Gud try.. Keep tabbin Dude.. (y)
     
  3. nadish

    nadish Active Member

    Thats a very gud thing to attach the sound clip with tabs n chords. It makes easier to understand for the begineers like me
     
  4. sam_guitar

    sam_guitar New Member

    Where is audio dear ??? and its strumming pattren
    plz i want it its my fav song
     
  5. shahmyel

    shahmyel GuRu DaDa

    i want thsese tabs
     
  6. BaAaLi

    BaAaLi New Member

    sam! which song ? yaqeen or mein ik fard ? lemme know i'll record the strumming pattern for you!
     

Share This Page