Chords of Hotel california(Eagle band)

Discussion in 'English Guitar Tabs - Submit or Request' started by sandeepm05, Jan 22, 2008.

  1. sandeepm05

    sandeepm05 New Member

    Title - Hotel California
    Artist - Eagles
    Tabbed by - Sandy


    Chords

    ......EADGBE
    -------------
    Bm....224432
    F#....244322
    A......x02220
    E......022100
    G......320002
    D......xx0323
    Em....022000



    Bm........................F#
    On a dark desert highway, cool wind in my hair
    A......................E
    Warm smell of colitas rising up through the air
    G..........................D
    Up ahead in the distance, I saw a shimmering light
    Em
    My head grew heavy and my sight grew dim
    F#
    I had to stop for the night

    Bm................................F#
    There she stood in the doorway; I heard the mission bell
    A..........................................E
    And I was thinking to myself this could be heaven or this could be hell
    G........................D
    Then she lit up a candle, and she showed me the way
    Em...................................F#
    There were voices down the corridor, I thought I heard them say


    Chorus :

    G........................D
    Welcome to the Hotel California.
    .......Em...................Bm7
    Such a lovely place, such a lovely face
    G................................D
    Plenty of room at the Hotel California
    Em......................................F#
    Any time of year (any time of year) you can find it here

    Keep on playing the song the way you have over and over and you have got it. Enjoy.
     
  2. sandeepm05

    sandeepm05 New Member

    wat is dis guys 396 views n reply
    i hate dis......
     
  3. chhetp1

    chhetp1 New Member

    sandeepm05

    its good but can u put in ur feed and the lead combination of this song
     
  4. sandeepm05

    sandeepm05 New Member

    m bit a busy in exms so i`ll post lead part later....
    sorry 4 delay...........
     
  5. sandeepm05

    sandeepm05 New Member

    intro hotel california

    intro/lead part

    *~*Repeat*~*
    e|----------------0-2-2h3p2|-----------------------|-----0---0---0---0--7-0--10-0|
    B|--0-0h2---0-2-3----------|---0-3-2---------------|----0---0---0---0--8----8----|
    G|--------3----------------|--2-----2-2h4p2--------|---0---2---4---7--9----9-----|
    D|-------------------------|----------------4\2-0/2|--2---4---5---9--------------|
    A|-------------------------|-----------------------|-----------------------------|
    E|-------------------------|-----------------------|-----------------------------|

    then comes

    e|-7-6-7-9-10-9-10-12--14-|
    B|------------------------|
    G|------------------------|
    D|------------------------|
    A|------------------------|
    E|------------------------|

    e|--2h3p2-0-2-2-0-2--0----------|------------------0-3-2-3-7-9-10-9-10-12--|
    B|------------------3-3-0-------|---0-3-2-2-2-0-2-3------------------------|
    G|-----------------------2-2/4--|--2-----2---2-----------------------------|
    D|------------------------------|------------------------------------------|
    A|------------------------------|------------------------------------------|
    E|------------------------------|------------------------------------------|

    e|---0---0---0------0-7-0-10-12-10-----|--9-9h10p9\7h9p7-6----------------------|
    B|---0---0---0-----0---------------12--|------------------8-7-7-7-8-7-7---------|
    G|---0---2---4----7--------------------|-----------------------------9-7--------|
    D|--2---4---5----9---------------------|--------------------------------11-9-8--|
    A|-------------------------------------|----------------------------------------|
    E|-------------------------------------|----------------------------------------|


    e|-----------7-------|-----------2-------|-----------5-------|-----------0-------|
    B|-------7-----------|-------2-----------|-------5------5----|-------0-----------|
    G|-----7---7-----7-9-|-----3---3---------|-----6---6----6----|-----1---1---------|
    D|---9---------------|---2---------------|---7---------------|---2---------------|
    A|-------------------|-------------------|-------------------|-------------------|
    E|-7-----------------|-2-----------------|-5-----------------|-0-----------------|

    e|-----------3--5-6-7--|-------2---5-3-2--|-----------0---0---0----|-----------2-|
    B|-------3------5-6-7--|-----3---3-------3|-------0----0---0---0---|-------2-----|
    G|-----4---4-----------|---2--------------|-----1---1---1---1------|-----3---3---|
    D|---5-----------------|-0----------------|---2--------------------|---4---------|
    A|---------------------|------------------|------------------------|-------------|
    E|-3-------------------|------------------|-0----------------------|-2-----------|

    e|-----------7-------|----------------2--|-----------5-------|-----------0-------|
    B|-------7-----------|----------2--------|-------5------5----|-------0-----------|
    G|-----7---7-----7-9-|-------3-----3-----|-----6---6----6----|-----1---1---------|
    D|---9---------------|----2--------------|---7---------------|---2---------------|
    A|-------------------|-------------------|-------------------|-------------------|
    E|-7-----------------|-2-----------------|-5-----------------|-0-----------------|

    e|-----------3---------|-------2---5-3-2--|---------0-3-1-0--------|-----------2-|
    B|-------3-----------3-|-----3---3-------3|-------0--------3-1-0---|-------2-----|
    G|-----4---4---4-2h4---|---2--------------|-----1---------------2-0|-----3---3---|
    D|---5-----------------|-0----------------|---2--------------------|---4---------|
    A|---------------------|------------------|------------------------|-------------|
    E|-3-------------------|------------------|-0----------------------|-2-----------|


    intro over............
     
  6. mimoban

    mimoban New Member

    little bit correction

    G........................D
    Welcome to the Hotel California.
    .......F#...................Bm7
    Such a lovely place, such a lovely face
    G................................D
    Plenty of room at the Hotel California
    Em......................................F#
    Any time of year (any time of year) you can find it here
     
  7. sandeepm05

    sandeepm05 New Member

    nice correction mimo.. thnx alot n dis sounds gud n earlier as aslo sounds gud... nyway thnx alot....

    .................................................. .................................................. .....................................
    MuSic iS mY loVe N
    GUiTaR iS My BeLoVer
    So i CanT liVe wIdOuT GUiTaR
    it SuCKs aLL bT nT mE........
    kEEp rOcKIng...........
    .............................................................................................................................................
     
  8. Krazy 4 Guitar

    Krazy 4 Guitar Rockstar

    NO
    Sandeep's version is perfectly correct.
     
  9. augur

    augur I love bjr

    Is this the first ever Hotel California guitar tab?
     

Share This Page