Chords of Chaand Ki Roshni-Home Delivery-sung by KK

Discussion in 'Hindi Guitar Tabs - Submit or Request' started by deb7sk, Jan 8, 2006.

  1. deb7sk

    deb7sk New Member

    Song: Chaand ki Roshni
    Singer: Kay Kay
    Movie: Home Delivery
    Music Director: Vishaal-shekhar


    Intro:
    E|---------------------------------------------|------------------------------------------------------------|
    B|-----5-6s8-p6--|--6-5---------------------|-----5-6s10-8--|--6-5-----------------------------------|
    G|--5--------------|--------7-5-5h7p5-------|--5--------------|---------7-5-5h75---------------------|
    D|--5--------------|----------------------7-5--|--5-------------|--------------------------7-5------------|
    A|----------------------------------------------|-------------------------------------------------7-5-3----|
    E|----------------------------------------------|----------------------------------------------------------3-|

    C------------------------------F-----------------C----
    %Chaand ki roshni se, hawa ki khushboo se bani
    C----------------------------F------------C---
    Shaam ke rangon se, raat ke kajal se saji
    F--------------------------C------------------F-------C----
    Aasman ke chadar ode huen, zamin ke sej par soein
    C---------F-----G------
    Oh kitni hasin ho tum…(2)
    G----F----C---
    Pyar khoi khoi
    C------------------------------F----------------------
    Chaand ki roshni se, hawa ki khushboo se bani

    Interlude:
    E|-----------8-8-8-|-8s10---------|---------------------------------------|
    B|-----5h6---------|--------6-6-6-|-5-6s10-10-8-8-|-5-6s10-10-8-8-|
    G|----------------------------------------------|----------------------------|……………x2
    D|----------------------------------------------|----------------------------|
    A|----------------------------------------------|----------------------------|
    E|----------------------------------------------|-----------------------------|

    F-------------------------------------------G------
    Jhoonki, nazar mein tere, choopi paheli hain
    F----------------------------------G--------
    Jahan hai sara ya phir teri hatheli hain
    F--------------C-----------
    Is haath par, hai jo likha
    C----------F---------------G---
    Mera bhi naseeb hai wahin
    %

    **same as the second para**

    Tere liye hi khushboo hawaein layi hain
    Laher bhi tere kadmo se milne ayi hain
    Tum hi mera har khwaab ho
    Aur hai na sapnon mein koyi
    %

    *Note: I loved this song the very first time I heard it (this evening). I have tried to get the right chord structure and the intro and interlude lead portions. However, I am not too happy with the lead portions, especially the intro part. Comments/suggestions/rectifications are more than welcome. I hope you all will like this.
     

Share This Page