Chords n Tabs for Nirvana MTV unplugged

Discussion in 'English Guitar Tabs - Submit or Request' started by stendec, Jun 13, 2004.

  1. stendec

    stendec New Member

    dudes
    here r the rabs 4 the whole F***kin album
    mtv unplugged in New york
    all of em quite easy to play n on acoustic guitar

    sendin em in 2 parts

    HAPPY ROCKIN



    About A Girl
    Come As You Are
    Jesus Don't Want Me For A Sunbeam
    Man Who Sold The World
    Pennyroyal Tea
    Dumb
    Polly
    On A Plain
    Something In The Way
    Plateau
    Oh Me
    Lake Of Fire
    All Apologies
    Where Did You Sleep Last Night

    ---
    About A Girl (Kurt Cobain) - Bleach

    Voicings:

    E5 - 022x00
    G - 320033 or 320003
    C#5 - x466xx
    G#5 - 466xxx
    F#5 - 244xxx
    A5 - x022xx
    C5 - x355xx

    E5 G E5 G
    I need an easy friend
    E5 G E5 G
    I do with a hand to lend
    E5 G E5 G
    I do think you fit this shoe
    E5 G E5 G
    I do what you have a clue

    C# G# F#
    I'll take advantage while
    C# G# F#
    You hang me out to dry
    E5 A5 C5 E5 G E5 G
    But I can't see you every night free
    E5 G E5 G
    I do

    I'm standing in your light
    I do hope you have the time
    I do pick up number two
    I do keep a date with you

    [Repeat chorus]

    Solo: Repeat 3x
    E-------------------------|-
    B-------------------------|-
    G----------------7--7/9-9-|-
    D-----5-7-7/9--9----------|-
    A-7-7---------------------|-
    E-------------------------|-

    [Repeat first verse and chorus]

    E5 A5 C5 E5 G E5 G
    I can't see you every night free
    E5 G E5 G E5 G E5 G E5 G E5 G
    I do, I do, I do

    ---
    Come As You Are (Kurt Cobain) - Nevermind

    Voicings:

    F# - 244322
    A - x0222x
    B - 22444x
    D - x0023x

    Main Riff (with chorus-effect pedal)
    E---------------------------------------------|-
    B---------------------------------------------|-
    G---------------------------------------------|-
    D---------------------------------------------|-
    A---------------0-----0--------------2--------|-
    E--0--0--1--2------2-----2--2--1--0-----0--0--|-

    [The 'memoria' part: F# A ]
    [The 'And I swear that I don't...' part: B D ]

    Intro; Repeat main riff 3x

    Come as you are, as you were
    As I want you to be
    As a friend, as a friend
    As an old enemy
    Take your <a href="http://www.ntsearch.com/search.php?q=time&v=56">time</a>, hurry up
    The choice is your
    Don't be late, take a rest
    As a friend
    As an old memoria
    memoria, memoria, memoria

    Come dowsed in mud, soaked in bleach
    As I want you to be
    As a trend, as a friend
    As an old memoria
    memoria, memoria, memoria

    And I swear that I don't have a gun
    No I don't have a gun
    No I don't have a gun

    Solo: Repeat 4x
    E---------------------|------------------------|-
    B--6-9-11-11\6-6-9\11-|-6-9-11-11-13-11-11-9\6-|-
    G---------------------|------------------------|-
    D---------------------|------------------------|-
    A---------------------|------------------------|-
    E---------------------|------------------------|-

    memoria, memoria, memoria, memoria

    And I swear that I don't have a gun
    No I don't have a gun [Repeat 5x]

    memoria

    ---
    Jesus Wants Me For A Sunbeam (Eugene Kelly/Francis McKee)

    Voicings:

    E5 - 022x00
    D - xx0232
    A - x02220
    Asus4 - x02230

    Intro: E5 D A Asus4 A [Repeat 2x]

    E5 D A Asus4 A
    Jesus don't want me for a sunbeam
    E5 D A Asus4 A
    'Cause sunbeams are never made like me
    E5 D A Asus4 A
    Don't expect me to cry, for all the reasons you had to die
    E5 D A Asus4 A
    Don't ever ask your <a href="http://www.ntsearch.com/search.php?q=love&v=56">love</a> of me

    E5 D
    Don't expect me to cry
    E5 D
    Don't expect me to lie
    E5 D A Asus4 A
    Don't expect me to die for thee

    [Repeat Verse and Chorus]
    [Repeat Intro]
    [Repeat Chorus]
    [Repeat Verse and Chorus]
    [Repeat Chorus]
    [Repeat Intro]

    ---
    Man Who Sold The World (David Bowie)

    Voicings:

    A - x0222x
    D5 - xx023x
    F - 133211
    C - x3555x
    G - 355433
    <a href="http://www.ntsearch.com/search.php?q=Bb&v=56">Bb</a> - x1333x

    Intro (with distortion); Repeat 6x
    E--------------------|- -|-----|-
    B--------------------|- -|-----|-
    G--2-2-2-0--2h3p2-0--|- -|--2~-|-
    D--------------------|- -|-----|-
    A--------------------|- -|-----|-
    E--------------------|- -|-----|-

    A
    We passed upon the stairs,
    D
    We spoke of was and when
    A
    Although I wasn't there
    F
    He said I was his friend
    C
    Which came as a surprise
    A D
    I spoke into his eyes -- I thought you died alone
    C
    A long long <a href="http://www.ntsearch.com/search.php?q=time&v=56">time</a> ago

    C - Riff F - Riff
    E-----------------|- -|-----------------|-
    B-----------------|- -|-----------------|-
    G-----------2-4-5-|- -|-----------------|-
    D-----2-3-5-------|- -|-----------0-2-3-|-
    A-3-5-------------|- -|-----0-1-3-------|-
    E-----------------|- -|-1-3-------------|-

    F
    Oh no, not me,
    <a href="http://www.ntsearch.com/search.php?q=Bb&v=56">Bb</a> F
    We never lost control,
    C F
    You're face to face,
    <a href="http://www.ntsearch.com/search.php?q=Bb&v=56">Bb</a> A
    With the man who sold the world

    [Repeat Intro]

    A
    I laughed and shook his hand,
    D
    I made my way back <a href="http://www.ntsearch.com/search.php?q=home&v=56">home</a>,
    A
    I searched for form and land,
    F
    Years and years I roamed,
    C
    I gazed a gazely stare,
    A D
    We walked a million hills -- I must have died alone,
    C
    A long long <a href="http://www.ntsearch.com/search.php?q=time&v=56">time</a> ago.

    F
    Who knows, not me,
    <a href="http://www.ntsearch.com/search.php?q=Bb&v=56">Bb</a> F
    I never lost control,
    C F
    You're face, to face,
    <a href="http://www.ntsearch.com/search.php?q=Bb&v=56">Bb</a> A
    With the man who sold the world.

    [Repeat Intro]
    [Repeat second chorus]
    [Repeat Intro]

    Outro: (Not very accurate, but at least the right notes)
    E--------------------------------------------------------
    B--------------------------------------------------------
    G--2-2-2-0--2h3p2-0--2-2-2-0--2h3p2-0--/9-9-9-9-9-9-9-9--
    D--------------------------------------------------------
    A--------------------------------------------------------
    E--------------------------------------------------------

    E-------------------------------------------------------
    B-------------------------------------------------------
    G--\2-2-2-0--2h3p2-0--2-2-2-0--2h3p2-0-/10-10-10-10-10--
    D-------------------------------------------------------
    A-------------------------------------------------------
    E-------------------------------------------------------

    E-------------------------------------------------------
    B-------------------------------------------------------
    G-\9-\7-7-7-7-7-7-/9-9-9-9-9-\2-2-2-0-2h3p2-0-/10-10-10-
    D-------------------------------------------------------
    A-------------------------------------------------------
    E-------------------------------------------------------

    E-------------------------------------------------------
    B-------------------------------------------------------
    G-10-10-\9-\7-7-7-7-7-7-/9-9-9-9-9-\2-2-2-0-2h3p2-0--2--
    D-------------------------------------------------------
    A-------------------------------------------------------
    E-------------------------------------------------------

    ---
    Pennyroyal Tea (Kurt Cobain) - In Utero

    Voicings:

    Am - x02210
    G - 320033 or 320003
    C - x3555x
    D - x5777x
    <a href="http://www.ntsearch.com/search.php?q=Bb&v=56">Bb</a> - 688xxx

    Intro; Repeat 2x
    Am G (E) (G) (E)

    Am G
    I'm on my <a href="http://www.ntsearch.com/search.php?q=time&v=56">time</a> with everyone
    Am G
    I have very bad posture

    C D Bb
    Sit and drink Pennyroyal Tea
    C D Bb
    Distill the life that's inside of me
    C D Bb
    Sit and drink Pennyroyal Tea
    C D Bb
    I'm anemic royalty

    Give me a Leonard Cohen afterworld
    So I can sigh eternally

    I'm so tired I can't sleep
    I'm anemic royalty
    I'm a liar and a thief
    I'm anemic royalty

    I'm on warm milk and laxatives
    Cherry-flavored antacids

    Sit and drink Pennyroyal Tea
    Distill the life that's inside of me
    I'm anemic royalty
    I'm anemic royalty

    Outro: Am

    ---
    Dumb (Kurt Cobain) - In Utero

    Voicings:

    E5 - 022x00
    G(i) - 355433
    G(ii) - 320033 or 320003
    B - x2444x
    C - x3555x

    [During Verse strum : E5 G(i)]
    [During Chorus strum: E5 G(ii)]
    [In bridge switch to: B C]

    I'm not like them
    But I can pretend
    The sun is gone
    But I have a light
    The day is done
    But I'm having fun
    I think I'm dumb
    Or maybe just happy

    Think I'm just happy [Repeat 3x]

    My heart is broke
    But I have some glue
    Help me inhale
    And mend it with you
    We'll float around
    And hang out on clouds
    Then we'll come down
    And I have a hangover

    Have a hangover [Repeat 3x]

    Skin the sun
    Fall asleep
    Wish away
    The soul is cheap
    Lesson learned
    Wish me luck
    Soothe the burn
    Wake me up

    [Repeat first verse and chorus]

    I think I'm dumb [Repeat 12x]

    ---

    ---
     
  2. .:SpY_GaMe:.

    .:SpY_GaMe:. New Member

    abt a girl is really an easy one to play
     
  3. nikeballerx13

    nikeballerx13 New Member

    thank you that helps a lot
     
  4. VIN91

    VIN91 New Member

    thnx 4 tht!!!
     
  5. dj_doctor

    dj_doctor New Member

    nirvana mtv unplugged video + teaching videos only US $ 50.
    pm me if u want them
     

Share This Page