chords/lyrics required for the song [B]AADAT FROM ALBUM JAL[/B]

Discussion in 'Hindi Guitar Tabs - Submit or Request' started by husein20, Aug 15, 2004.

  1. husein20

    husein20 New Member

    hey guys... this song is amazing. its one of the best indirock i've heard. i have really started liking this song... all you guys who havent heard it... do it now.
    if anyone knows about the tab/chords or lyrics please help me out. i have been breaking my head over it but not getting any result. any genius who can help me pls?
    thanks alot..
    husein
     
  2. ijlal

    ijlal The B chord

    hey yaar.........post ur topic in pakistan chords thread.......

    and search the forum......there are a lot topics regarding AADAT tabs and chords...u can find it easily

    regards
     
  3. Madni

    Madni New Member

    hi , i guess u r pretty late in listening to the song , and may i correct u that its a paki song , well here is how i play the song . ENjoy



    |--1---|
    |--3---|
    |--2---|
    |--0---|
    |------|
    |------|

    C
    |--0---|
    |--1---|
    |--0---|
    |--2---|
    |--3---|
    |------|


    Bb
    |--1---|
    |--3---|
    |--3---|
    |--3---|
    |------|
    |------|


    Intro..
    |------------0--------0--------0--------0------|
    |------3--------3--------3--------3--------3---|
    |---2-----2--------2--------2--------2--------2|
    |0---------------------------------------------|
    |----------------------------------------------|
    |----------------------------------------------|

    |------------0--------0--------0--------0------|
    |------3--------3--------3--------3--------3---|
    |---3-----3--------3--------3--------3--------3|
    |3---------------------------------------------|
    |----------------------------------------------|
    |----------------------------------------------|

    Repeat this a few times through:
    Aaaaaa.. Na janey kab sey.. umeedain kuch baqi hain
    Mujhe phir bhi teri yaad kyoon aati hai

    Na janey kab sey
    |-------------0-------------|
    |-------------3-------------|
    |-------------2-------------|
    |-------------0-------------|
    |---------------------------|
    |---------------------------|


    Then comes..

    |-0-0-0---1-1-1---0-0-0---1-1-1---0-0-0---1-1-1---0-0-0---1-1-1---|
    |-3-3-3---3-3-3---3-3-3---3-3-3---3-3-3---3-3-3---3-3-3---3-3-3---|
    |-2-2-2---2-2-2---2-2-2---2-2-2---3-3-3---3-3-3---3-3-3---1-1-1---|
    |-0-0-0---0-0-0---0-0-0---0-0-0---3-3-3---3-3-3---3-3-3---3-3-3---|
    |-----------------------------------------------------------------|
    |-----------------------------------------------------------------|

    Repeat a couple of times, then..



    Dm C Bb C
    Duur jitna bhi tum mujh se, paas tere mein

    Ab toh addat see hai mujhe koo aise jeene meinnn

    Zindagee sai koi shikwa bhi nahin hai

    Ab toh zinda hoon mein zamein mein aasman mein


    Dm Dm Bb Bb

    Dm Dm Bb C


    Dm C Bb C
    Chahat aisee hai ye teree barhtee jai

    Aahat aisee hai teree mujh ko satayee

    yaadein gehree hain teri dil dob jao

    Aur aankhon mein ye gham dum ban jai

    Hay hay ehhhhh oooooh HOOOOOOOOOO


    Then comes the solo..

    e|-5-6-5-5-5--------------------------------
    b|-----------8-6-5-5-5/6-5-3-6-6h8p6-5------
    g|------------------------------------------
    d|------------------------------------------
    a|------------------------------------------
    e|------------------------------------------

    e|-5-6-5-5--8-10-8-8/12-10-8-8-8/6-6/8-6-5-3
    b|------------------------------------------
    g|------------------------------------------
    d|------------------------------------------
    a|------------------------------------------
    e|------------------------------------------
     
  4. anujroy

    anujroy New Member

    hey dude ... the actual chord progression is C#m --- B----A

    C#m----------------B------------A-----------B
    duur jitna bhi tum mujhse ....paas tere main


    and so on ... its there in the forum ... search for it and u'll get it !!! ...

    take care.
     
  5. shrikant_btw

    shrikant_btw New Member

    i think no one is doin good work here dudes all of u sound wrong in that just chk the rythm of woh lamhe ........... i guess its proceeds on the same way well the chaords i guess are bm ,A, G well i will chk again & come back with accurate version
     
  6. djmistryman

    djmistryman kuch..jaana pehchaana

    Here is a good one -

    http://www.ultimate-guitar.com/tabs/j/jal/addat_ver2_tab.htm

    CHORDS:
    A Bsus2 A/C#add7 A/C#add9 C#sus2 C#m A5 C#5 B5
    002220 224422 002242 002255 446644 446654 577000 046600 024400



    e|-------------4------4------4------4--------|
    B|--------4------4------4------4------4------|
    G|------6---6------6------6------6------6----|
    D|----6--------------------------------------|
    A|-------------------------------------------|
    E|-------------------------------------------|


    Aaaaaaaaaaaaaaaaaaaaaaaaaaaaaaaaaaaaaaaaaaaaaaaaaa aaaaaaaaaaaaaaa
    e|-------------4------4------4------4--------|------------2-----2-----2-----2--------|
    B|--------4------4------4------4------4------|-------2------2-----2-----2-----2------|
    G|------6---6------6------6------6------6----|-----4---4------4-----4-----4-----4----|
    D|----6--------------------------------------|---4-----------------------------------|
    A|-------------------------------------------|---------------------------------------|
    E|-------------------------------------------|---------------------------------------|

    Najane Kab say
    e|-------------4------4------4------4--------|
    B|--------4------4------4------4------4------|
    G|------6---6------6------6------6------6----|
    D|----6--------------------------------------|
    A|-------------------------------------------|
    E|-------------------------------------------|

    Umedain kuch baaqi hainnnnnnnnnnn
    e|-------------4------4------4------4--------|------------2-----2-----2-----2--------|
    B|--------4------4------4------4------4------|-------2------2-----2-----2-----2------|
    G|------6---6------6------6------6------6----|-----4---4------4-----4-----4-----4----|
    D|----6--------------------------------------|---4-----------------------------------|
    A|-------------------------------------------|---------------------------------------|
    E|-------------------------------------------|---------------------------------------|

    Mujhey phir bhi teri yaadddddddddddd kyonnnnnnn
    e|-------------4------4------4------4--------|-------------4-----4-----4-----4-------|
    B|--------4------4------4------4------4------|-------4-------4-----4-----4-----4-----|
    G|------6---6------6------6------6------6----|-----6---6-------6-----6-----6-----6---|
    D|----6--------------------------------------|---6-----------------------------------|
    A|-------------------------------------------|---------------------------------------|
    E|-------------------------------------------|---------------------------------------|

    aati haiiiiiiiiii Najane Kab say .................
    e|-------------2------2------2------2--------|---4---|
    B|--------2------2------2------2------2------|---4---|
    G|------4---4------4------4------4------4----|---6---|
    D|----4--------------------------------------|---6---|
    A|-------------------------------------------|---x---|
    E|-------------------------------------------|---x---|



    [0:50] (now rhythm kicks in)

    C#sus2 - C#m , C#sus2 - C#m , A/C#add7 - A/C#add9 , A/C#add7 - A/C#add9 x 1


    [1:00]

    C#sus2 - C#m , C#sus2 - C#m , A/C#add7 - A/C#add9 , A/C#add7 - A/C#add9 x 1


    e|---------4-------------4-------------2--------2----|
    B|-------4---4---------4---4---------2---2------2----|
    G|-----6-------6-----6-------6-----4-------4----4----|
    D|---6-------------6-------------4--------------4----|
    A|----------------------------------------------2----|
    E|----------------------------------------------2----|


    [1:08]

    C#sus2 Bsus2 A Bsus2
    Duur jitna bhi tum mujh say, paas teray main
    C#sus2 Bsus2 A Bsus2
    Ab to Aadat si hai mujko aisay jeenay main
    C#sus2 Bsus2 A Bsus2
    Zindagi say koi shikwa hi nahin hai
    C#sus2 Bsus2 A Bsus2
    Ab to zinda houn mein is neelay aasmaan main


    [1:44] ([x] = its upto you if you wanna play it)

    chords played : C#sus2, A, C#sus2, A, Bsus2

    e|----------4------7--4--------4-----7--4----|---------2-------2-------2-----------|
    B|--------4----[4]-----------4---[4]---------|-------2-------2-------2-----2-------|
    G|------6------------------6-----------------|-----4-------4-------4---------4-----|
    D|----6------------------6-------------------|---4---------------------------------|
    A|-------------------------------------------|-------------------------------------|
    E|-------------------------------------------|-------------------------------------|



    e|----------4------7--4--------4-----7--4----|---------2-----------2--------|
    B|--------4----[4]-----------4---[4]---------|-------2-------------2--------|
    G|------6------------------6-----------------|-----4-------4-------4--------|
    D|----6------------------6-------------------|---4-----------------4--------|
    A|-------------------------------------------|---------------------x--------|
    E|-------------------------------------------|---------------------x--------|


    [2:02]

    C#sus2 Bsus2 A Bsus2
    Chahat aisi hai yay teri, barhti jayay
    C#sus2 Bsus2 A Bsus2
    Aahat aisi hai yay teri mujh ko satayay
    C#sus2 Bsus2 A Bsus2
    Yaadain gehri hain itni dil duub jaayay
    C#sus2 Bsus2 A Bsus2
    Aur aankhon main yay ghum num ban jayay
    C#m Bsus2 A Bsus2
    Hayhayyyyyyyyyyyy ooooooooooooo HOoooooooooooo



    [2:46] (m = mute)

    e|--------------------------------------------------------------------
    B|---5-7--9m-9m-9---7-5--4m-4m-4-4---4-5-4-2--5m-5---5s7--5-4---------
    G|--------------------------------------------------------------------
    D|--------------------------------------------------------------------
    A|--------------------------------------------------------------------
    E|--------------------------------------------------------------------

    e|----------------------------------------------------------------------
    B|-5-7-9m-9-9m-9-9--9/12--14--14s16--14--12-12--12-10-10/12-10--10p9s7--
    G|----------------------------------------------------------------------
    D|----------------------------------------------------------------------
    A|----------------------------------------------------------------------
    E|----------------------------------------------------------------------



    [3:05]

    C#sus2 Bsus2 A Bsus2
    Ab to Aadat si hai mujko aisay jeenay main


    [3:15]

    (electric guitar as rhythm)

    Heyheyyyyyy ooooooo Hooooooooooooooo
    -
    Aaaaaaaaaaaaaaaaaaaaa oooooooooooooooo
    e|---4---7-----4---7-----4---2---4---x--------
    B|---4---7-----4---7-----4---2---4---x--------
    G|---6---8-----6---8-----6---4---6---x--------
    D|---6---9-----6---9-----6---4---6---7--------
    A|---4---9-----4---9-----4---2---4---7--------
    E|---4---7-----4---7-----4---2---4---5--------


    [3:32]

    C#5 A5 B5
    Sabhi raatain hain, sabhi baatain hain
    C#5 A5 B5
    Bhulado unhain mitado unhain

    [3:49]

    rhythm:

    C#5 - C#5 - A5 - B5 - C#5 - A5 - B5 - C#5 C#sus2
    AAAAAAAAAAaaaaaaaaaaaaaaaaaaaaa oooooooooo (single strum)


    [4:08]

    (acoustic) [fill 1] [fill 2] [fill 1] [half of fill 2]
    e|----------4------------------2------------------4-------------------2---|
    B|--------4------------------2------------------4-------------------2-----|
    G|------6------------------4------------------6-------------------4-------|
    D|----6------------------4------------------6-------------------4---------|
    A|------------------------------------------------------------------------|
    E|------------------------------------------------------------------------|

    little fill in between the above pattern:

    (acoustic: finger picking)

    fill 1 fill 2
    e-----4---4------|----2---2--|
    B---4---4--------|--2---2----|



    Ab to Aadat si hai mujko.
     

Share This Page