Chords for Pretty Child by Indus Creed

Discussion in 'English Guitar Tabs - Submit or Request' started by blackfayth_vox, Dec 11, 2004.

  1. blackfayth_vox

    blackfayth_vox New Member

    One of the greatest songs by an Indian band back in the 90's, I would like to get the chords and/or tabs for Indus Creed's Pretty Child.
    I'm not a player myself but my close buddy is and she's a huge fan of this song. With her birthday coming up i figure this might be a cool addition to new strings i'm buying for her...
    Chicks love that "oh he's so thoughtful jazz" lol ;)

    But seriously tho if someone could help me out with this pls mail me at blackfayth_vox@yahoo.co.in

    Cheers
    fAyTh

    PS - would someone know where i could get a copy of the old album of Rock Machine? Rock n Roll Renegade is its name i think...
     
  2. jayswami

    jayswami Blue J

    I dont know where u can get a copy, but i got top of the rock mp3 can send it to your email if u want.

    i will have to tab pretty child, google it.. or something.. if u dont find it.. i will do it.


    Jay
     
  3. blackfayth_vox

    blackfayth_vox New Member

    REQ - Indus Creed : Pretty Child

    hey Jay,

    i did try to google the song... but only got links to lyrics and band profile etc etc... i'm still on it tho. if i dont come up with something within a week or 10 days max i'll get back to ya.
    Would really appreciate it if you could mail me Top of the Rock.

    Cheers
    FaYtH
     
  4. Athiest

    Athiest New Member

    Hi Jay,

    It would be great if you can send me the MP3 for 'Top of the Rock'
    on my mail id neeraj.kakar@gmail.com, or upload it somewhere like rapidshare.de
    Uday & his gang were one of the first indian rockers to feature on MTV.
     
  5. jayswami

    jayswami Blue J

    dude remove your email from the public post. friendly advice. u will be spammed to death, even though its gmail u dont want that happening :)
    I just gmailed it to u.
    I am a big rock machine indus creed fan. And bought the new alms for shanti from their website as well. I usually dont exchange artitste mp3s (unless the artiste allows it). this mp3 was ripped from my old audio cassette. I couldnt find their CD anywhere when i went looking 2 years ago in india. I finally found my college days casette collection in my old room in new delhi (that place feels like a time machine) and converted it to mp3. thats why i am sharing it to u, since i know its not available. I also got the old agni album ripped from casette :)

    Jay
     
  6. ameetpai

    ameetpai New Member

    indus creed pretty child chords

    hi all
    this is the first time im posting chords (not that i can figure out too many songs ) .... but this one sounds real good

    I havent been able to figure out the intro ... and its damm beautiful .. so if someone could please tab it and send it then that would be great.

    as of now enjoy playing this one, an amazing amazing song

    Indus Creed - Pretty Child

    E* 022102
    D* 004230
    Bm 004432
    B7sus4 022200
    D/F# 200232
    G6 320000

    Intro
    E* D* Bm A

    E* D*
    pretty child, they're cheering away
    Bm A
    as you ride through your kingdom of sand
    E* D*
    lovely child , you're a hero today
    Bm A
    you're a magical mystery man


    E* D* A
    like a bird on the wing, you soar through your dreams
    B7sus4 E* D*
    let your fantasies sweep the skies, but you know it's unreal
    A B7sus4 G6 D/F# A B7sus4
    the pain is so clear, like the tears in a baby's eyes


    E* D* Bm A


    E* D*
    holy child, you fly through the night
    Bm A
    on your faithful and glorious steed
    E* D*
    lonely child, wake up to the light
    Bm A
    get back to your tatters, your home on the street


    E* D* A
    like a bird on the wing, you soar through your dreams
    B7sus4 E*
    let your fantasies sweep the skies
    D* A
    but you know it's unreal, the pain is so clear
    B7sus4 G6 D/F# A
    like the tears in a baby's eyes
    B7sus4 E
    like the tears in a baby's eyes


    E* D* A
    like a bird on the wing, you soar through your dreams
    B7sus4 E*
    let your fantasies sweep the skies
    D* A
    but you know it's unreal, the pain is so clear
    B7sus4 E* D* A
    like the tears in a baby's eyes
    B7sus4 E* D* A
    tears in a baby's eyes
    B7sus4 E
    like the tears in a baby's eyes


    Pai
     
  7. silent_dragon

    silent_dragon Immortal guitarist

    oh pai from where did u confiscate this Bhai!!
     
  8. ameetpai

    ameetpai New Member

    mr silent, since you obviously havent understood the simple english in my previous post let me clarify once again just for you

    i figured out the chords myself

    Pai
     
  9. fuzzy

    fuzzy New Member

    Hi guys same here been looking for Indus Creed cassettes and mp3 .. got some from kazaa but need more... jay can u email me the chords of top of the rock as well?

    fazalmehdi@gmail.com
     
  10. rocking_devil

    rocking_devil Banned

    gud chords ameetpai, though i know the lyrics coz they sing it clearly.i got this song and few other of indus creed like best friend, trapped, renegades from kazza.but im sorry i cant send it through mail coz im a dail up and it takes a long long time to upload with constant phone calls interfering.
     
  11. rocking_devil

    rocking_devil Banned

    check out this version too.....

    E9 D9
    pretty child, they're cheering away
    Bm9 A
    as you ride through your kingdom of sand
    E9 Dmaj7sus4
    lovely child , you're a hero today
    Bm9 A
    you're a magical mystery man


    E9 D9 A9
    like a bird on the wing, you soar through your dreams
    B7sus4 E9 D9
    let your fantasies sweep the skies, but you know it's unreal
    A9 B7sus4 G6 D/F# A9 B7sus4
    the pain is so clear, like the tears in a baby's eyes


    {E9 D9 Bm9 A}


    E9 D9
    holy child, you fly through the night
    Bm9 A
    on your faithful and glorious steed
    E9 D9
    lonely child, wake up to the light
    Bm9 A
    get back to your tatters, your home on the street


    E9 D9 A9
    like a bird on the wing, you soar through your dreams
    B7sus4 E9
    let your fantasies sweep the skies
    D9 A9
    but you know it's unreal, the pain is so clear
    B7sus4 G6 D/F# A9
    like the tears in a baby's eyes
    B7sus4 E
    like the tears in a baby's eyes


    E9 D9 A9
    like a bird on the wing, you soar through your dreams
    B7sus4 E9
    let your fantasies sweep the skies
    D9 A9
    but you know it's unreal, the pain is so clear
    B7sus4 E9 D9 A9
    like the tears in a baby's eyes
    B7sus4 E9 D9 A9
    tears in a baby's eyes
    B7sus4 E
    like the tears in a baby's eyes

    rock on!!!!!!!!!
     
  12. rocking_devil

    rocking_devil Banned

    i was actually looking for their tabs / riffs not chords.well , i guess i gotta just tab them out by myself.
     
  13. ameetpai

    ameetpai New Member

    thanks devil ...

    pls share the tabs for the song in case u figure them out...
    couldnt figure those out
     
  14. rocking_devil

    rocking_devil Banned

    yup i am looking for the tabs but aint able to get them.their website sows only chords.
     
  15. sid_thakur

    sid_thakur New Member

    Indus Creed Pretty Child Intro Tabs

    Hey All
    Just tabbed this out - they used to play it on Mtv when I was in the 10th standard - Heard it after a long time and decided to tab it out, Anyway, I play this with my clean sounding Squire (A Squire should be ok but a strat will really do this song justice)
    Compression
    Reverb - set not very high but not too low either
    Chorus - again set at just below medium speed and intensity

    And most importantly - damn this is a great song

    Pretty Child Intro
    h=hammer on
    /=slide
    p=pull off

    E--------------------|--------------------|
    B---------------9p7--|-------------9------|
    G---------11---------|---------11---------|
    D------9-------------|------9-------------|
    A---7----------------|---7----------------|
    E--------------------|--------------------|

    E--------------------|--------------------|
    B------------10p7----|------------10------|
    G---------9----------|---------9----------|
    D------7-------------|------7-------------|
    A---5----------------|---5----------------|
    E--------------------|--------------------|

    E--------------------|--------------------|
    B--------------------|--------------------|
    G-------------7------|-------------7------|
    D---------11-----11--|---------11---------|
    A------9-------------|------9-------------|
    E---7----------------|---7----------------|

    E--------------------|
    B--------------------|
    G-------------8------|
    D----------9-----9---|
    A------7------------7|
    E---5----------------|

    E--------------------|--------------------|
    B---------------9p7--|-------------9------|
    G---------11---------|---------11---------|
    D------9-------------|------9-------------|
    A---7----------------|---7----------------|
    E--------------------|--------------------|

    E-------------9-------9---|
    B---------9/10-10-9H10----|
    G----------------7--------|
    D------7------------------|
    A---5---------------------|
    E-------------------------|

    E--------------------|--------------------|
    B--------------------|--------------------|
    G-------------7------|-------------7------|
    D---------11-----11--|---------11---------|
    A------9-------------|------9-------------|
    E---7----------------|---7----------------|

    E--------------------|
    B--------------------|
    G-------------8------|
    D----------9-----9---|
    A------7------------7|
    E---5----------------|

    He plays the same riff through all the riffs - also for the chorus he plays a riff similar to the very first part of this tab - not too sure what he's playing there but will get into that in the future - it would be interesting to tab the saxophone piece for the guitar too - theres a weekend coming up - maybe I'll sit down and tab it completely
    This is what i have for now
    Corrections/Suggestions welcome

    Thanks
    Sidharth
     
  16. gauravgenani

    gauravgenani New Member

    He plays this in the beginning, they show a couple of shots in the video .. You can hold these shapes and arpeggiate with slight palm muting .. This pretty much goes through the whole song .. This song reminds me of the old days, I am sitting in my old house watching Mtv, pretty much the only source of music that time .. I saw these guys recently in Pune, it was like a flashback ..

    E--------------------|--------------------|
    B--------7------9p7--|--------7-----9-----|
    G--------------------|--------------------|
    D------9---9---------|------9---9---------|
    A---7----------------|---7----------------|
    E--------------------|--------------------|

    E--------------9-----|--------------------|
    B---------9h10---10--|----------9h10----10|
    G--------------------|----9---------------|
    D------12------------|------12-------12---|
    A---9----------------|--------------------|
    E--------------------|--------------------|

    E--------------------|--------------------|
    B--------------------|--------------------|
    G-------------7------|-------------7------|
    D---------11-----11--|--------11---------|
    A------9----9--------|------9----9--------|
    E---7----------------|---7----------------|

    E--------------------|
    B--------------------|
    G-------------8------|
    D----------9-----9---|
    A------7------------7|
    E---5----------------|
     
  17. gauravgenani

    gauravgenani New Member

    He plays this in the beginning, they show a couple of shots in the video .. You can hold these shapes and arpeggiate with slight palm muting .. This pretty much goes through the whole song .. This song reminds me of the old days, I am sitting in my old house watching Mtv, pretty much the only source of music that time .. I saw these guys recently in Pune, it was like a flashback ..

    E--------------------|--------------------|
    B--------7------9p7--|--------7-----9----|
    G--------------------|--------------------|
    D------9---9---------|------9---9--------|
    A---7----------------|---7----------------|
    E--------------------|--------------------|

    E--------------9-----|--------------------|
    B--------9h10---10--|---------9h10----10|
    G--------------------|----9---------------|
    D-----12------------|------12-------12---|
    A---9----------------|--------------------|
    E--------------------|--------------------|

    E--------------------|--------------------|
    B--------------------|--------------------|
    G-------------7------|-------------7------|
    D---------11-----11--|---------11--------|
    A------9----9--------|------9----9--------|
    E---7----------------|---7----------------|

    E--------------------|
    B--------------------|
    G-------------8------|
    D----------9-----9---|
    A------7------------7|
    E---5----------------|
     
  18. alpha1

    alpha1 I BLUES!

    When the fvck did you see Indus Creed / Rock Machine in Pune?
    And where?
     
  19. gauravgenani

    gauravgenani New Member

    it was at high spirits .. i think in 2010
     
  20. alpha1

    alpha1 I BLUES!

    Thanks for the prompt response!
     

Share This Page