Chords for Chand mera Dil (Hum Kisise Kam Nain)

Discussion in 'Hindi Guitar Tabs - Submit or Request' started by Subhro, Dec 19, 2004.

  1. Subhro

    Subhro Argentina lost :"(

    Chords for Chand mera Dil (Hum Kisise Kam Nain).

    Hi guyz & galz..

    I found some people askin for the chords of this song.. posted the chords b4 too.. guess no one noticed.. so i'm sending it again.

    I heard this song long time back.. but i remember the first part of the song quite well.. the last part i'm not sure.. but its a wonderful song 2 be played on guitar.. nyways hav fun. :p: This is my frst thread :p: didnt know how 2 start 1 b4 :eek::

    Intro..

    E -------------0-------------------------------------
    B -----------------1p0-------------------------------
    G -------0h2------------0^2^0----------------------
    D --0h2---------------------------2------------------
    A ------------------------------------2---3----------
    E ----------------------------------------------------


    Am..............Dm G.................C
    Chaand mera dil Chaandni ho tum

    Am.................F....F...............Am
    Chaand se hai door chaandni kahaan

    Am.........Dm G................C
    Laut ke aana hai yahin tumko

    Am...............F F...............Am
    jaa rahe ho tum Jaaao meri jaan..

    Till this part i'm very sure.. aftr this . i dont remember..
    if anybody can provide me with the audio file i can try..

    however u can play it like this.. ( i tried 2 fill in the chords with whatevr i still remember of the last part of the song.. :eek:: if this sounds ok or not u judge... )

    G...........Am......... F.........Am........
    Waise to har kadam milenge log sanam

    Am.....G............Dm.....F...............G
    Milega sachchaa pyaar mushkil se... ho O O

    (same set of chords as the above)
    Dil ki dosti khel nahin koi
    Dil se dil hai milta yaar mushkil se

    G.........B........... F..............Am... ( this i'm really unsure) :eek::
    yahi to hai sanam pyaar ka thikana..

    G........... E........... Am..............
    main hoon main hoon main hooon...

    any suggestions & corrections welcome...
    (i'm sure there r many :eek:: ) coz I'm a beginner :p: .. still learning :p: add reps if u like my work :p:

    chillax evry1 :beer:
     
    d_ist_urb_ed and DesiPride143 like this.
  2. DesiPride143

    DesiPride143 BEHAVE!

    nice work dude.....def..rep from me and some points too...also check out ur title..it's not newbie anymore...;)
     
  3. Subhro

    Subhro Argentina lost :"(

    thanx a ton

    :p: :p:

    thanx a ton desi :p: :p:
    thanx for the awesome motivation...

    :p: :p:

    bye tk cre, Subhro. :beer:
     
  4. ganjabhai

    ganjabhai New Member

    Am.......g
    C.........F
    F.........Dm
    Dm.......Am
     
  5. Bandbaaja

    Bandbaaja Pronounced Band Baaaa Ja

    Waise to har kadam part

    I think this is the chord pattern

    G...........Am......... F.........Am........
    Waise to har kadam milenge log sanam

    Am...............................G.....................
    Milega sachchaa pyaar mushkil se... ho O O

    (same set of chords as the above)
    Dil ki dosti khel nahin koi
    Dil se dil hai milta yaar mushkil se

    G...................................C...G
    yahi to hai sanam pyaar ka thikana..

    G........... E........... Am..............
    main hoon main hoon main hooon...

    (one keyboardist friend of mine told me that the G in the verse has a (Gm G) shift, someone check that!!!)
     
  6. Subhro

    Subhro Argentina lost :"(

    thnx bandbaja :) nice name.. wil chk it out..
     
  7. jayswami

    jayswami Blue J

    I have a totally different take on the antara

    the antara is very different for what you guys have posted..
    according to me it goes like this

    C...........Am......... F.........Am........
    Waise to har kadam milenge log sanam

    F..................Bb.............C7..................... ****** see note
    Milega sachchaa pyaar mushkil se... ho O O

    (same set of chords as the above)
    Dil ki dosti khel nahin koi
    Dil se dil hai milta yaar mushkil se

    G........................G..Abdim....Am
    yahi to hai sanam pyaar ka thikana..

    G........... E........... Am..............
    main hoon main hoon main hooon...

    The F Bb C is the most beautiful part fo the song.. where he changes scale from Am to F major.. since only bass,strings and vocals are in the antara its kinda confusing when u hear the song for the first time. when it sinks it it makes total sense.

    So now he is in F Major scale, and needs to come back to Am... what does he do..
    He beautifully shifts one step to G major scale in "yeho to hai sanam"
    then does a G-> fleeting Abdim->back to Am(the bass guitar does a G Ab A transition actualy while strings play counter melody and he sings..).. .. RD was a genious.!

    Abdim =(Ab+B+D)
     
    Bandbaaja likes this.
  8. Bandbaaja

    Bandbaaja Pronounced Band Baaaa Ja

    good one jay
    need to check this out
    cheers again
     
  9. Subhro

    Subhro Argentina lost :"(

    Abdim

    :shock: :shock:

    @JAY
    i'll think twice b4 postin ny chords frm now on.. :eek::
    prblm with me is that i only work with the A B... G major & minors only.. and 1 or 2 sevenths like E7 B7... i hav no idea what 2 do with the rest..... sus, aug, dim... etc etc.. how do u get 2 figure out those chords in a song ?? :think:

    nyways.. can u giv me the configuration 4 that Abdim :shock:

    and u askd 2 refer 2 ur note .. is it the last few lines of ur msg ?
     
  10. Bandbaaja

    Bandbaaja Pronounced Band Baaaa Ja

    yes the NOTE means the last few lines where he has explained the logic behind his deduction. seems nice, I still need to play it and see.

    Subro, the diminished thing is simple, will try to post a thread on DIMINISHED BASICS
     
  11. Subhro

    Subhro Argentina lost :"(

    sure dude .. post it.. @bandbaja :)

    bye tk cre
    chill :beer: Subhro..
     
  12. jayswami

    jayswami Blue J

    add the sus4,sus2Maj 7,min7 and 7 chords to your vocabulary. and learn to identify them. then u should move to dim,dim7, dim7-5 or half dim,m9.9 and maj 9,add9,add11,#9,#11,13... etc etc... it will never stop..
    and then one day many year from now .. when u are arranging a sympphony.. u will stop it midway.. and ask violinist #23 to tune her G string.. as it is down quarter step :p:
     
  13. vikified

    vikified New Member

    daymn dudes. lost me there. water way above my head. i am new here. actually new to all this guitar and all because of this song. chand mera dil the intro .... so far i have no idea whats all this .. any suggestion ?
     
  14. kunalj

    kunalj New Member

    awesome work dude..
    kunal.
     
  15. jozko

    jozko Banned

    chaand mera dil - ham kisi se kam nahi

    Great thread on a great song by Subhro, Band, Jay and all. Like all your works! u ppl rock.

    Here's my attempt on intro. just a variant of Subhro's

    Code:
    e---------0--------------------
    B-----------1-0----------------
    G-----0-2-------0h2-0----------
    D-0-2-----------------2-0------
    A-------------------------3-0--
    
    Song video http://www.youtube.com/watch?v=rW6VdPb08EQ
     
  16. Morbid_Angel

    Morbid_Angel Sid the sloth

    ^

    Yeh, yours is correct.
     
  17. Morbid_Angel

    Morbid_Angel Sid the sloth

    Corrections + Tab Submission.

    Corrections. I checked with my Sir he says its correct :!

    G7 put instead of F.
    Am.................F....G7...............Am
    Chaand se hai door chaandni kahaan.

    Same for the 2nd time.

    Antra.

    At antra during O O after C7 you can add C.....F.....

    (C7 is in jayswami's post..its correct)..But i dont agree with the Bb..hold the F chord there.

    Here is my chord pattern.

    Code:
    Intro
    Asus4|%|
    
    Song x2
    Am|Dm|G|C|Am|F|G7|Am
    
    Antra
    C|Am|F|%|F|%|C7|C,F|--|
    
    After Antra (Whatever u call it don't know)
    G|%|Em|C|C|E|Am|--|--|--|
    .

    Code:
       Q.     E  Q    E  E     W                   Q.     E  Q    E  E   
    ------------------0-----|-------------------|-----------------------|
    ----------0--1-------3--|--3----------------|------------0----0--3--|
    *--2--------------------|-------------------|--0------2-------------|
    *-----------------------|-------------------|-----------------------|
    ------------------------|-------------------|-----------------------|
    ------------------------|-------------------|-----------------------|
    
    
      E  H.           E     Q.     E  Q    E  E     E  H.           E   
    ---------------------|-----------------------|---------------------|
    --L--1------------L--|--1------0----------1--|--1------------------|
    ---------------------|------------2----2-----|---------------------|
    ---------------------|-----------------------|-----3------------L--|
    ---------------------|-----------------------|---------------------|
    ---------------------|-----------------------|---------------------|
    
    
      E  Q    E  Q.     E     W                      E  E  E  E  E  E  E  E   
    -----------------------|--------------------||------------------0--------|
    --------------------0--|--------------------||---------------------1--0--|
    ----------0--2---------|--2----------------*||*--------0--2--L-----------|
    --L--3-----------------|-------------------*||*--0--2--------------------|
    -----------------------|--------------------||---------------------------|
    -----------------------|--------------------||---------------------------|
    
    
      E  E   E  E  E  E  E  E       Q    Q    Q    Q       Q    Q    H         
    ----------------------------||----------------------|---------------------|
    --L-------------------------||----------------------|---------------------|
    -----0h--2--0--------------*||--0----0----0----2----|--L----2----2--------|
    ---------------2--0--------*||----------------------|---------------------|
    ---------------------3--0---||----------------------|---------------------|
    ----------------------------||----------------------|---------------------|
    
    
      Q    Q    Q    Q       Q    Q    H           Q    E  E  E  Q.      
    ----------------------|---------------------|-----------------------|
    ----------------------|---------------------|----------------1------|
    -----------------2----|--L----2----2--------|-------2--3------------|
    --3----3----3---------|---------------------|-----------------------|
    ----------------------|---------------------|-----------------------|
    ----------------------|---------------------|-----------------------|
    
    
      E  Q.     E  E  E  E     E  E  Q    H           Q    E  E  S S S S S S E   
    ------------------------|----------------------|----------------------------|
    --1--3---------1--------|----------------------|----------------------------|
    ---------------------3--|--2--0--0----0--------|-------0--2--0-2-3-2-0------|
    ------------------------|----------------------|-----------------------3----|
    ------------------------|----------------------|----------------------------|
    ------------------------|----------------------|----------------------------|
    
    
      W                   Q    Q    Q    Q       Q    Q    H         
    -------------------|----------------------|---------------------|
    -------------------|----------------------|---------------------|
    -------------------|--0----0----0----2----|--L----2----2--------|
    -------------------|----------------------|---------------------|
    -------------------|----------------------|---------------------|
    -------------------|----------------------|---------------------|
    
    
      Q    Q    Q    Q       Q    Q    H           Q    E  E  E  Q.      
    ----------------------|---------------------|-----------------------|
    ----------------------|---------------------|----------------1------|
    -----------------2----|--L----2----2--------|--L----2--3--L---------|
    --3----3----3---------|---------------------|-----------------------|
    ----------------------|---------------------|-----------------------|
    ----------------------|---------------------|-----------------------|
    
    
      E  Q.     E  E  E  E     E  E  Q    H           Q    Q    Q    Q     
    ------------------------|----------------------|----------------------|
    --1--3------L--1--L-----|----------------------|-----------------0----|
    ---------------------3--|--2--0--0----0--------|--0----0----0---------|
    ------------------------|----------------------|----------------------|
    ------------------------|----------------------|----------------------|
    ------------------------|----------------------|----------------------|
    
    
      Q    Q    H           Q    Q    E  E  E  E     Q    E  E  S S Q.      
    ---------------------|------------------------|------------------------|
    --L----0----0--------|-------0----0--1--L--0--|--1-------0--3-1-L------|
    ---------------------|------------------------|------------------------|
    ---------------------|------------------------|------------------------|
    ---------------------|------------------------|------------------------|
    ---------------------|------------------------|------------------------|
    
    
      Q    Q    E  Q.        Q    Q    E  Q.        Q    Q    E  E  Q     
    ----------------------|----------------------|-----------------------|
    ----------------------|----------------------|-----------------------|
    -------0-------0------|-------1-------1------|-------2-------2-------|
    ----------------------|----------------------|-----------------------|
    ----------------------|----------------------|-----------------------|
    ----------------------|----------------------|-----------------------|
    
    
      W                  
    -------------------||
    -------------------||
    -------------------||
    -------------------||
    -------------------||
    -------------------||

    Duration Legend
    ---------------
    W - whole
    H - half
    Q - quarter
    E - 8th
    S - 16th
    T - 32nd
    X - 64th
    . - note dotted
    |-n-| - n-tuplets

    The tabs are also present in the pdf file.

    Enjoy.
     

    Attached Files:

  18. jozko

    jozko Banned

    Arnold very elaborate post bro. thanks for sharing. I want to try. You might want to name strings as EAD..
    Also what does L mean or did i miss any details?

    thx to u and ur sir. Keep works coming. Ask him to join IGT :-D
    Diwali greetings
     
  19. jozko

    jozko Banned

  20. Morbid_Angel

    Morbid_Angel Sid the sloth

    Oops, I thought it was mentioned. L is for hold note for the duration given above.

    I have jus extracted this file directly from GP so it shows timing with tabs.

    L = Tied Note.

    And, i didn't name the strings as all the 6 were shown. So, i guess everyone knew the TAB pattern.
     

Share This Page