Chords-dil Kya Kare (julie )

Discussion in 'Hindi Guitar Tabs - Submit or Request' started by GANESH RANE, Jul 19, 2004.

  1. GANESH RANE

    GANESH RANE New Member

    CHORDS----DIL KYA KARE FILM----JULIE MUSIC---RD BURMAN
    SCALE---Am
    Am……………………….D……..Am……………………
    DIL KYA KARE JAB KISISE KISIKO PYAR HO JAAYE
    Am………………………..D……..Am……………………..
    JAANE KAHAN KAB KISIKO KISISE PYAR HO JAAYE
    E7………………………………….D…….Am……………..C.
    OONCHI OONCHI DEEWARON SI IS DUNIYA KI RASME
    E7……………………………………………D…..Am……………………….C..
    HOOOO,NA KUCH TERE BAS MEIN JULIE NA KUCH MERE BAS MEIN
    DIL KYA KARE………
    C……………………………………………..Am…………………………………….
    (JAISE PARBAT PE GHATA JHUKTI HAI,JAISE SAGAR SE LEHER UTHTI HAI
    C……………………………Am…………….
    AISE KISI CHEHRE PE NIGAH RUKTI HAI)------2 TIMES
    E7………………………………D…………..Am………………………..C.
    HOOO,ROK NAHI SAKTI NAZRON KO DUNIYA BHAR KI RASMEIN
    E7……………………………….D……Am…………………………C
    NA KUCH TERE BAS MEIN JULIE NA KUCH MERE BAS MEIN
    DIL KYA KARE……
    C….
    AA MAIN TERI YAAD MEIN SABKO BHULA DUN
    Am…..
    DUNIYA KO TERI TASBEER BANA DUN
    C….
    MERA BAS CHALE TO DIL CHEER KE DIKHA DUN
    E7………………………………………D………
    HOOO DAUD RAHA HAI SAATH LAHOO KE
    Am……………………………C
    PYAAR TERA NAS NAS MEIN
    E7……………………………….D…….Am……………………….C
    NA KUCH TERE BAS MEIN JULIE NA KUCH MERE BAS MEIN
    DIL KYA KARE…..
     
  2. can u send me the music in the form
    E---1---3--
    D--2--3---
    am still an amateur
    thnx
     
  3. urmilus

    urmilus New Member

    he guitaristofm someone has done this tabing work. I've got this from this forum only..u might like that.

    ntro Music.....
    E|-4--6-----4--6--4--7--4--7--7---4--6-----6--6--------|
    B|------4-----------------------6-------7--------------|
    G|-----------------------------------------------------|

    E|-------6-----------------------------4-4----------4-4|
    B|----7-----7-9-7-9-7-9-7-9----4-4--7-------4-4--7-----|
    G|-8---------------------------------------------------|

    --------------------------------------------------------------------------------

    E|---------6--7----6------6--9----6--9-6-------7--6----|
    B|-----9---------------9------------------9----------9-|
    G|-8---------------------------------------------------|
    Dil Kya Karey, Jab Kisi se, Kisi ko Pyar Ho Jaye

    E|--------6--7----6------6--9----6-9-6-------7--6------|
    B|-----9---------------9----------------9----------9---|
    G|-8---------------------------------------------------|
    Jaane Kahan, Kab Kisiko, Kisise Pyar Ho Jaye
    --------------------------------------------------------------------------------

    E|-11----11--11-9--11-11--9--11-11-9-------------------|
    B|--------------------------------------9-9------------|
    G|-----------------------------------------------------|
    ho.. Oonchi Oonchi Deewaron Si

    E|---------9-9--11--9---7---7--------------------------|
    B|----9-9----------------------------------------------|
    G|-----------------------------------------------------|
    Iss Duniya Ki Rasmein

    E|--11--11-9--11-11--9--11-11--9-----------------------|
    B|------------------------------------9--9-------------|
    G|-----------------------------------------------------|
    Na Kuch Tere Bas Mein Julie

    E|---------9-9---11--9---7---7-------------------------|
    B|----9-9-----------------------------------7--9-------|
    G|-----------------------------------------------------|
    Na Kuch Mere Bas Mein
    --------------------------------------------------------------------------------
    The music in between

    E|--------13-13----13-11----13-13--------11-11---11-9----11-11--|
    B|--11-13-------11-------13---------9-11-------9------11--------|
    G|--------------------------------------------------------------|

    E|--------13-13----13-11----13-13--------11-11---11-9----11-11--|
    B|--11-13-------11-------13---------9-11-------9------11--------|
    G|--------------------------------------------------------------|

    Better if played at a higher pitch...
    E|---6--4--7--6--4--4--6----------6-4-6-4------4----------------|
    B|-4---------------------------4----------6--6------------------|
    G|--------------------------------------------------------------|

    E|---6--4--7--9--6--4-------------6-4-6-4------4----------------|
    B|-4---------------------------4----------6--6------------------|
    G|--------------------------------------------------------------|

    --------------------------------------------------------------------------------


    E|----------9-9-------------------9-9------------------|
    B|---9-9-9------11--9------9-9-9-------11-9------------|
    G|-----------------------------------------------------|
    Jaise Parbat Pe Ghata Jhukti Hai

    E|----------9-9--------------------9--9----------------|
    B|---9-9-9------11--9------9-9-9---------11-9----------|
    G|-----------------------------------------------------|
    Jaise Saagar Mein Lehar Uthti Hai

    E|---11-9--11-9--11-9------------9---------------------|
    B|--------------------11--9----9-------11-9-11-7-9-----|
    G|-----------------------------------------------------|
    Aise Kisi Chehre Pe, Nigaah Rukti Hai
    --------------------------------------------------------------------------------


    E|-11----11--11-9--11-11--9--11-11-9-------------------|
    B|------------------------------------9-9--------------|
    G|-----------------------------------------------------|
    Ho.. Rok Nahin Sakti Nazron Ko


    E|---------9-9--11--9---7---7--------------------------|
    B|----9-9----------------------------------------------|
    G|-----------------------------------------------------|
    Duniya Bhar Ki Rasmein



    E|--11--11-9--11-11--9--11-11--9-----------------------|
    B|------------------------------------9--9-------------|
    G|-----------------------------------------------------|
    Na Kuch Tere Bas Mein Julie

    E|---------9-9---11--9---7---7-------------------------|
    B|----9-9-----------------------------------7--9-------|
    G|-----------------------------------------------------|
    Na Kuch Mere Bas Mein


    E|---------6--7----6------6--9----6--9-6-------7--6----|
    B|-----9---------------9------------------9----------9-|
    G|-8---------------------------------------------------|
    Dil Kya Karey, Jab Kisi se, Kisi ko Pyar Ho Jaye

    E|--------6--7----6------6--9----6-9-6-------7--6------|
    B|-----9---------------9----------------9----------9---|
    G|-8---------------------------------------------------|
    Jaane Kahan, Kab Kisiko, Kisise Pyar Ho Jaye
    --------------------------------------------------------------------------------

    Aa Maein Teri Yaad Mein Sab Ko Bhuladoon
    Duniya Ko Teri Tasveer Banadoon
    Mera Bas Chale To Dil Cheer Ke Dikhadoon
    Daud Raha Hai Saath Lahu Ke Pyar Tera Nas Nas Mein
    Na Kuch Tere Bas Mein Julie Na Kuch Mere Bas Mein
    Dil Kya Karey Jab Kisise Kisiko Pyar Ho Jaye
     
  4. chetan patle

    chetan patle New Member

    gud work for Dil Kya Kare...

    nice job done ________ for Dil Kya Kare
     
  5. roentgen

    roentgen Member

    There are some corrections.
    Original key is G#m. But I'll post it in Am.

    Am………………………....G…..Am……………………
    DIL KYA KARE JAB KISISE KISIKO PYAR HO JAAYE
    Am………………………..G……..Am……………………..
    JAANE KAHAN KAB KISIKO KISISE PYAR HO JAAYE
    C………………………………….…….…..Bb.........................C.
    OONCHI OONCHI DEEWARON SI IS DUNIYA KI RASME
    C……………………………………………...........Bb........…………………….C..
    HOOOO,NA KUCH TERE BAS MEIN JULIE NA KUCH MERE BAS MEIN
    DIL KYA KARE………


    Am……………………………………………....................…………………………………….
    JAISE PARBAT PE GHATA JHUKTI HAI,JAISE SAGAR SE LEHER UTHTI HAI
    C…………………………….........Em…...Am…G.
    AISE KISI CHEHRE PE NIGAH RUKTI HAI)------2 TIMES
    C………………………………Bb…………..………………………...........C.
    HOOO,ROK NAHI SAKTI NAZRON KO DUNIYA BHAR KI RASMEIN
    C………………………………...........Bb……...…………………………C
    NA KUCH TERE BAS MEIN JULIE NA KUCH MERE BAS MEIN
    DIL KYA KARE……

    Rajesh
     

Share This Page