Chords : Dhanno ki AAnkhon mein ( Kitab) ; RD Burman

Discussion in 'Hindi Guitar Tabs - Submit or Request' started by JUDAS_666, Aug 1, 2013.

  1. JUDAS_666

    JUDAS_666 New Member

    Scale : A#m
    Movie: Kitaab (1977)
    Music/ Vocals: RD Burman
    Lyrics: Gulzaar

    Note: Probably the first bollywood song to use flanging effects (I'm Not sure of the fact though). It was later used in the title track of "Golmaal" ( again where Pancham gave his vocals) and Hum tum se mile (rocky).....

    Didn't find chords for this song anywhere, so tried it myself....let me know if it sounds ok ( :

    Flanging ( Repeated throughout )
    G-3h5-5-5/6/5-----------

    Chords Used

    ---A#m----(A#madd11+)---F#----F---------A#------G#----------------------

    E--1--------0-----------2--------1------------1------4----------
    B--2--------2-----------2--------1------------3------4---------
    G--3--------3-----------3--------2------------3------5-------
    D--3--------3-----------4--------3------------3------6--------
    A-(1)-----------------------------------------(1)------------
    E------------------------------------------------------

    A#m
    Ho..........[A#madd11+]Ho.........[A#m]Ya
    [A#m]Dhanno ki aankhon mein
    [F#]Raat ka Soor[F]ma[G#]Chaand ka Choom[A#m]maa.....aa

    [A#m]sahar bhi [F#]tere bina [F]raat lage
    chaala pade [G#]aag jaise chaand pe jo [A#]haat la[A#m]ge

    Ho..........[A#madd11+]Ho.........[A#m]
    Dhanno ka gussa hai,
    [F#]Teer ka chum[F]ma
    Aur [G#]chaand ka chum[A#m]ma

    [A#m]Dhanno tujhe [F#]khwaab mein de [F]khaa hai
    laila ki [G#]heer ki ki[A#]Taab mein di[A#m]khaa hai

    --------------------------------------------------------
     
  2. raga2303

    raga2303 Member

    It was indeed first bollywood song to use flanging effect. I heard a story that RDB was travelling to US and he heard this instrument which can be attached with guitar. When he brought it back in India every body discouraged him that sound is not at all "musical". He trusted his instinct and used it in this song. Ofcourse result was for everybody to see.
     

Share This Page