Chehra hai ya chand khila hai--intro part

Discussion in 'Hindi Guitar Tabs - Submit or Request' started by Hardik, Feb 5, 2005.

  1. Hardik

    Hardik .:.:.:BoRn TaLenT:.:.:.

    Chehra hai ya chand khila hai( from movie sagar)--intro part

    hi,this is the first time i am trying to wright tabs... :p:
    so please correct my mistakes,like i dunno how to adjust timing and all..
    but i am sure the notes are correct.....


    Chehra hai ya chand khila hai--intro part


    ....A
    E--0-0---------0--1-0h1p0----------------0---------
    B--2-2--2--3----------------------------2--2------
    G--2----------------------------------2------2-----
    D--2-------------------------------2------------------
    A-0------------------------------0--------------------
    E------------------------------------------------------


    ..........................................E
    E-----------------------------0-0---------------------
    B-3-1-0-----------------------0-0------------------------
    G---------2—1h2-1-----------1-1------------------------------
    D-----------------------------2------------------------
    A----------------------------2-------------------------
    E-----------------------------------------------------

    .....................................................Am
    E-------------------------------------0---------------
    B--------0--1--3--1—0h1p0----------1-1-----------------------------
    G-1--2------------------------------2---2----------------
    D-----------------------------------2-------------------
    A-----------------------------------------------------
    E-----------------------------------------------------

    ........................................................................................E
    E--000-------0------0-----------------------------------------0----
    B-------1-0----1-0---1-0----0-1-3-4---5-555555555-----------0-------
    G-----------2------2------2------------5-555555555-----------1-----
    D--------------------------------------------------------------2----
    A-----------------------------------------------------------2-------
    E--------------------------------------------------------------------


    E------------------------------------------------------
    B-------0----------------------------------------------
    G--1-2--2-1---------------1h2---2/4—4h5—5h7—7/13--13----
    D------------3-2-0---2h3-------------------------------------
    A-----------------------------------------------------
    E-----------------------------------------------------

    ...................................................................................Am
    E-----------------------------------------------------------0----
    B-----------------------------------------------------------1---
    G---1-----1----1----1----1----1---1------------------------2----
    D-2--3-0--3-2--3-0--3-2--3-0--3-2-2--2--------------------2--
    A------------------------------------3---3-2-------12\2-------
    E-------------------------------------------------------------

    (this is the flute and the strings part)


    E--0-----0------0------0-------0-1-0------0-1-0----0-1-0-1-0-1-0---
    B---1-0---1-0----1-0----1-0--------------------------------
    G-------2-----2------2------2---------------------------
    D------------------------------------------------------
    A-----------------------------------------------------
    E-----------------------------------------------------

    and then the song starts....please help me with your suggestions :beer:
     
  2. Hardik

    Hardik .:.:.:BoRn TaLenT:.:.:.

    is no one checking this....come on ppl...i need some response...
    i need to know if i am right ...awaiting ur responses..
    thanks....
     
  3. smriti

    smriti // Silent Observer //

    i dont know how 2 read tabs so just cant give my views.......wait for gurus at IGT 2 respond. meantime, its good sharing something u know..................
     
  4. jayswami

    jayswami Blue J

    seems like u put in a lot of effort. i will cross check with my guitar. but good effort none the less keep it up.

    you guys should check out kishmu's midi same song. kishmu has some awesome midi files.
    http://geocities.com/kishmu/MIDI/sagarjaisi.mid
    I think rijaaz used the same midi file in his recording :p:

    kishmu is our in house midi/keyboards specialist.
    the best way to learn from his midi is using vanbasco karaoke player.
    it gives u piano view and u can solo individual tracks and slow it down and learn etc. google it.
     
  5. Hardik

    Hardik .:.:.:BoRn TaLenT:.:.:.

    yes jay,i really worked hard on this.....
    thanks for the midi info....

    one loves to continue doing hardwork if his efforts are appretiated..or atleast he gets some reply on improvement....
    and i think you pros. are doing a wonderful job for ppl like me...
    hats off to you....
    i was specially waiting for ur reply...:)
    thanks.....
     
  6. rizaaj

    rizaaj Forum Leader

    looks cool hardik... will try out tonight and let u know tomorrow....
     
  7. Hardik

    Hardik .:.:.:BoRn TaLenT:.:.:.

    thanks rizaaj....i'll be waiting..
     
  8. Subhro

    Subhro Argentina lost :"(

    good work hardik... u bein appreciated :p:
     
  9. Bandbaaja

    Bandbaaja Pronounced Band Baaaa Ja

    good work!!
    right key
    but i havent checked it,
    i play the start in the closed string position, (5th fret A major position like F)
    and end it in the A open string.

    GREAT WORK, GOOD EFFORT
    I ALWAYS APPRECIATE TABBERS :)
    IT TAKES A LOT OF TIME AND EFFORT!!!
     
  10. Hardik

    Hardik .:.:.:BoRn TaLenT:.:.:.

    thanks subhro,bandbaaja....
    it encourages me to do even better.....:)
     
  11. rizaaj

    rizaaj Forum Leader

    ya hardik they were cool.. better than i have tried ever...

    great work...
     
  12. lord_neo

    lord_neo Guest

    Nice work hardik, giving you reps!
     
  13. Hardik

    Hardik .:.:.:BoRn TaLenT:.:.:.

    @ lord,rizaaj...thank you very much......
    thanks a tonne:):):)
     
  14. jayswami

    jayswami Blue J

    some parts are wrong...
    just by eye balling

    .......................................................................................E
    E--000-------0------0------------------3-333333333-----------0----
    B-------1-0----1-0---1-0----0-1-3-4---5-555555555-----------0-------
    G-----------2------2------2-----------------------------------1-----
    D--------------------------------------------------------------2----
    A-----------------------------------------------------------2-------
    E--------------------------------------------------------------------

    has to be

    .......................................................................................E
    E--000-------0------0----------------------------------------0----
    B-------1-0----1-0---1-0----0-1-3-4---5-555555555-----------0-------
    G-----------2------2------2-------------5--555555555--------------------1-----
    D--------------------------------------------------------------2----
    A-----------------------------------------------------------2-------
    E--------------------------------------------------------------------

    for eg.

    ..................................................................................Am
    E-----------------------------------------------------------0----
    B-----------------------------------------------------------1---
    G---2-1--2-1---2-1--2-1---1--------------------------------2----
    D-2-----2----3-----2-----2--2---2--------------------------2--
    A------------------------------3---3--2-------------12\2-----
    E-------------------------------------------------------------

    doesnt match whats there in the song.

    listen to to again and re do it. u can do it.
     
  15. Hardik

    Hardik .:.:.:BoRn TaLenT:.:.:.

    @jay....thanks for pointing out...
    i did have some doubt in the last part you told me to correct....
    will definitely correct a.s.a.p.....
    thanks:)
     
  16. Liquid

    Liquid New Member

    jay...dude...ur like some guitar monster man ( i mean it in a good way).....u can tell that its wrong just by eyeballing that??....whoa..
     
  17. Hardik

    Hardik .:.:.:BoRn TaLenT:.:.:.

    ok i have edited......the 5555555 one part was already done by jay....
    i think the one he told me to correct was this(corrected)..

    ...................................................................................Am
    E-----------------------------------------------------------0----
    B-----------------------------------------------------------1---
    G---1-----1----1----1----1----1---1------------------------2----
    D-2--3-0--3-2--3-0--3-2--3-0--3-2-2--2--------------------2--
    A------------------------------------3---3-2-------12\2-------
    E-------------------------------------------------------------

    i hope its right now....:)
     
  18. Subhro

    Subhro Argentina lost :"(

    too bad dude..
    u blundered in the frst line itself.. wright tabs ????
    don need 2 chk furthr..

    :p: :p: he he.. just kiddin... :p: :p:

    awesome job .. keep it up dude :)
     
  19. Hardik

    Hardik .:.:.:BoRn TaLenT:.:.:.

    thanks dude.....thank you very much....:)
     
  20. hari50

    hari50 New Member

    Hey Har*** ...

    Thanks!! The audio of you singing is great as well ....

    Cheers,
    Hari
     

Share This Page