CHANNO == RECORDING + INTRO + INTERVAL & TABS

Discussion in 'Pakistani Guitar Tabs - Submit or Request' started by faiqgiant, Jul 1, 2005.

  1. faiqgiant

    faiqgiant .: Innocent :.

    CHANNO
    Tabbed by FAIQ KHAN


    http://www.soundclick.com/bands/5/faiqgiant_music.htm


    dont forget to comment...




    Main Rift:
    E|---0--5-7-8-7-------------------|
    B|-----------------------------------|
    G|-----------------------------------|
    D|-----------------------------------|
    A|-----------------------------------|
    E|-----------------------------------|

    INTERVAL:
    E|---5-5--5-5--5-5--5-5---5-7-8---11---8--|
    B|-------------------------------------------------|
    G|-------------------------------------------------|
    D|-------------------------------------------------|
    A|-------------------------------------------------|
    E|-------------------------------------------------|

    SONG TABS:

    E|---7-7-7-7---7-7--6-6--------------------------|
    B|----------------------------------------8-8--7----|
    G|----------------------------------------------------|
    D|----------------------------------------------------|
    A|----------------------------------------------------|
    E|----------------------------------------------------|
    Channo ki aankh mein IIKK nashaaaaa ha

    E|---7-7-7-7-7-7--6-6--------------------------------|
    B|-------------------------------------------8-8--7-----|
    G|--------------------------------------------------------|
    D|--------------------------------------------------------|
    A|--------------------------------------------------------|
    E|--------------------------------------------------------|
    Gal pay uss kayyyyyyy Til ka nishaan ha

    E|-------------------------------------------------------------|
    B|---8-8-8-8-8---7-7/5-5---5-8-8-7-7-5---5-7-7-8---|
    G|-------------------------------------------------------------|
    D|-------------------------------------------------------------|
    A|-------------------------------------------------------------|
    E|-------------------------------------------------------------|
    is mein phir us ki hiya ha yeh dil day dia ha yeh dil bolay!

    Main Rift:
    E|---0--5-7-8-7-------------------|
    B|-----------------------------------|
    G|-----------------------------------|
    D|-----------------------------------|
    A|-----------------------------------|
    E|-----------------------------------|
     
  2. ticktock

    ticktock Banned

  3. faiqgiant

    faiqgiant .: Innocent :.

    Go check da difference once again, only da intro is same and dats only a coincidence, i guess my Listening and infinite aaz listening level is almost alike but im a bit better dem him, i checked da tabs u just refered dey r not proper as well as in complete u also should check dem, every one here knows my format of writing notes, so next time mind it, i mena no offence but if u still think dat im a cheater im ready to accept any of urs tabbing challenge next month im having my exams dis month, i know dat ur infinite aaz any ways yaar just gimme a ood reason dat y would i like to take others credits, i know wt im im hot here to prove my self im here to help da beginners dats all. hope i'll hear somthing good 4m u next time.
    take care.
     
  4. infinite aaz

    infinite aaz Member

    Brother,i m amazed why u r complaining me, in every post, i send u critisise it. why, i just ask u why u not mentioned the name of tabbers who posted the tabs, coz brother its a forum every one is here to discuss their difficulties and evry member should help him, and thats it it is not the place to fight, most of the members here like me, are not the perfact guitarist, playing guitar is hobby personally i donot claim i m a good guitarist i learnt a lot from this forum and i let others to learn from it, criticising other is not good way. Anyways i m a beginner, and beginner so long like me if every one created something wants appreciation , and suggestions not criticizing and no one feel happy if some one takes the credit of others work,leave it.
    But man we should respect others nobody know here others so we should support others, i think u understand what i m saying, anyways good luck for ur exams and keep on playing, one more thing in the last line u said i know u r aaz, why u write so, , anyways.


    and thaks ticktock recalling the link
     
  5. Lahori_rocker

    Lahori_rocker Guitar God left IGT

    its really work good job faiqgiant..............
     
  6. Lahori_rocker

    Lahori_rocker Guitar God left IGT

    try its introo


    F# F

    Channo ki ankhe main ik nasha hai

    F# F

    Gaal pay uskay til ka nishan hai

    Em am c

    Is pay phir uski hiya hai kay dil lay liya

    E|---0--5-7-8-7-------------------|
    B|-----------------------------------|
    G|-----------------------------------|
    D|-----------------------------------|
    A|-----------------------------------|
    E|-----------------------------------|

    KAy dil bolay
     
  7. faiqgiant

    faiqgiant .: Innocent :.

    Any ways man, chill out and enjoy soon i'll be launching my Kabhi by josh n yes infinite aaz da chordz i'll use to record KABHI are not mine i took dem 4m IGT but man i dont know who created dem, when ever some 1 post a song i check dem n if dey r good i copy paste da song in a note pad file not da name of da composer so i only can say dat dey r not my chords & i dont know who dey belong and a real guitarest dosent need to show off his name i also learned alot 4m dis site so lets join hands and do somthing 4 da newbies...
     
  8. faiqgiant

    faiqgiant .: Innocent :.

    No heart feelings 4m my side Infinite azz hope da same 4m ur side.
    take care.
     
  9. Lahori_rocker

    Lahori_rocker Guitar God left IGT

    well done faiqgiant! keep rock on and try to make chords of huqa pani
     
  10. faiqgiant

    faiqgiant .: Innocent :.

    sure i'll try but to be honest im not really very good in composing chords as compared to my leads but i'll look into it.
     
  11. Mehvar

    Mehvar *hippie~guitarist*

    saddness....
     

Share This Page