Chandrullo vunde (NVNV) telugu tabs

Discussion in 'Telugu Guitar Tabs - Submit or Request' started by praveen_d, Aug 17, 2005.

  1. praveen_d

    praveen_d New Member

    (tab line 1)
    E ------------------------------------------
    B ------------------------------------------
    G ------------------------------------------
    D --3-3-3--2-3--2-0-0----0-0------0--
    A ---------------------------------3-3-----
    E ------------------------------------------
    Chandrullo vunde kundelu kindikochinda


    (tab line 2)
    E ------------------------------
    B ------------------------------
    G ------------------------------
    D ------------------------------
    A --3-3-3--2-3--2-0-0-----------
    E ------------------------------
    Kindikocchi neela maarindaa

    (same as tab line 1)
    chukkallo unde jigelu ninny mechindaa

    (same as tab line 2)
    ninnu mechi neelo cherindaa

    (tab line 3)
    E ------------------------------
    B ------------------------------
    G ------------------------------
    D ------------------------------
    A --3-3-3--2-3--2---------------
    E -------------------5-5\2---------
    nuvvalaa saage trovantaa

    (tab line 4)
    E ---------------------------------
    B ---------------------------------
    G ---------------------------------
    D ---------------------------------
    A --3-3-3--2-3--2-0-0-------0-
    E --------------------------3-3----
    naavalaa tooge neeventaa -- yevanta

    (same as tab line 3)
    nuvvelle daare maarindaa

    E ------------------------------------------------------
    B ------------------------------------------------------
    G ------------------------------------------------------
    D -----------------------------------------0--0-2-0-2-
    A --3-3-3--2-3--2-0---0-2--2-3--3-0--------------
    E ------------------------------------------------------
    neevalle teere maari yerai paarindemo nelantaa

    Corrections, comments, reps welcome :)
     
    ananya likes this.
  2. ahfoo

    ahfoo New Member

    hi man
    thanks a lot
    you are my jesus christ
     
  3. tipo

    tipo New Member

    thanx dude
     
  4. ananya

    ananya New Member

    Good one
    reps for u
     

Share This Page