Chalta Raha-RoXen

Discussion in 'Pakistani Guitar Tabs - Submit or Request' started by Cool Guitarist, Jan 4, 2007.

  1. ok guys i have finally tabbed out this song this is my first of tabbing out any song i have worked on this so guys pls comment on it all suggestions or corrections r welcome wiith open hands




    SONG :CHALTA RAHA
    BAND :RoXen
    ALBUM:RoXen-e-Dewaar

    Tabbed by : COOL GUITARIST
    (Bilal Shoaib)

    Here goes

    G#m (466444)
    F# (244322)
    E (022100)

    Tuning EADGBE

    INTRO

    E-------------------------------------------
    B--7-9-7-10-9-7-9-7-10-9-7-9-7-9s10-12-10-9-
    G-------------------------------------------
    D-------------------------------------------
    A-------------------------------------------
    E------------------------------------------- x3

    sansain bhujti gaeen

    E----------------------------------------12-14-
    B--7-9-7-10-9-7-9-7-10-9-7-9-7-9s10-12-14------
    G----------------------------------------------
    D----------------------------------------------
    A----------------------------------------------
    E----------------------------------------------

    hoooo hoooo oooo

    E-14-14-14-14-14-14-14-14-14-14-------------
    B-------------------------------------------
    G-------------------------------------------
    D-------------------------------------------
    A-------------------------------------------
    E-------------------------------------------

    hoooo hoooo oooo

    E-12-12-12-12-12-12-12-12-12-12-------------
    B-------------------------------------------
    G-------------------------------------------
    D-------------------------------------------
    A-------------------------------------------
    E-------------------------------------------

    hoooo hoooo oooo

    E-14-14-14-14-14-14-14-14-14-14-------------
    B-------------------------------------------
    G-------------------------------------------
    D-------------------------------------------
    A-------------------------------------------
    E-------------------------------------------


    song starts


    E---------------------------------------------------------------
    B--7s9s7s9--7s9s7s9--7s12-12-12-12--9s14-14-14-14-12-12-10-10---
    G---------------------------------------------------------------
    D---------------------------------------------------------------
    A---------------------------------------------------------------
    E---------------------------------------------------------------


    E-----------------------------------------------------------------
    B--7s9s7s9--7s9s7s9--7s12-12-12-12--9s14-14-14-14-12-12-10-10-9-7-
    G-----------------------------------------------------------------
    D-----------------------------------------------------------------
    A-----------------------------------------------------------------
    E-----------------------------------------------------------------

    verse starts

    G#
    hum chal rahain hain

    F#
    lamhay gujatay gaye


    (for da verses below this tab is played)


    yunhi chalta raha
    E------------------------------------
    B--7p9-7p9--7h9-7h9-7p9-7p9--7h9-7h9-
    G-----------------------------------
    D-----------------------------------
    A------------------------------------
    E------------------------------------


    sansain bhujti gaeen
    E------------------------------------
    B--7p9-7p9--7h9-7h9-7p9-7p9--7h9-7h9-
    G-----------------------------------
    D-----------------------------------
    A------------------------------------
    E-----------------------------------


    G#
    yea yaadein rakh khoo gain yea kahan khoo gaeen
    F#
    kuch bhi na rah

    G#
    yea baatein kahan khoo gaeen saraab ho gaeen
    E
    main kah na saka


    G#
    yea yaadein rakh khoo gain yea kahan khoo gaeen
    F#
    kuch bhi na rah

    G#
    yea baatein kahan khoo gaeen saraab ho gaeen
    E
    main kah na saka


    Lead


    E-----------------------------------
    B--10-10-12-10-10-------------------
    G----9--------9---------------------
    D-----------------------------------
    A-----------------------------------
    E-----------------------------------(repeat as many times as necessary)


    E-----------------------------------------
    B--10-10-12-10-10-12-12-12-10-10-10-9-9-9-
    G----9--------9---------------------------
    D-----------------------------------------
    A-----------------------------------------
    E-----------------------------------------



    hum chal rahain hain
    E------------------------------------
    B--7p9-7p9--7h9-7h9-7p9-7p9--7h9-7h9-
    G-----------------------------------
    D-----------------------------------
    A------------------------------------
    E------------------------------------

    kuch bhi na kah sakay
    E------------------------------------
    B--7p9-7p9--7h9-7h9-7p9-7p9--7h9-7h9-
    G-----------------------------------
    D-----------------------------------
    A------------------------------------
    E-----------------------------------

    door tum say howay
    E------------------------------------
    B--7p9-7p9--7h9-7h9-7p9-7p9--7h9-7h9-
    G-----------------------------------
    D-----------------------------------
    A------------------------------------
    E-----------------------------------

    khwaboon main kho gaye
    E------------------------------------
    B--7p9-7p9--7h9-7h9-7p9-7p9--7h9-7h9-
    G-----------------------------------
    D-----------------------------------
    A------------------------------------
    E-----------------------------------



    G#
    yea sapnay tot gaye apnay rhooth gaye
    F#
    kuch bhi na rah

    G#
    yea haath chooth gaye sub tooth gaye
    E
    main kah na saka


    G#
    yea yaadein rakh khoo gain yea kahan khoo gaeen
    F#
    kuch bhi na rah

    G#
    yea baatein kahan khoo gaeen saraab ho gaeen
    E
    main kah na saka


    Solo
    (no idea only da tabs played behind)


    E-----------------------------------
    B-----------------------------------
    G-----------------------------------
    D-----------------------------------
    A--6s7-6s7-7-7----------------------
    E-----9---9-9-----------------------(repeat as many times as necessary)



    G#
    yea yaadein rakh khoo gain yea kahan khoo gaeen
    F#
    kuch bhi na rah

    G#
    yea baatein kahan khoo gaeen saraab ho gaeen
    E
    main kah na saka


    DOWNLOAD DA ATTACHMENT FOR BETTER VIEW
     

    Attached Files:

  2. Hey Guys This Not Fair I Worked So Hard On It And No One Is Even Bothering To Reply I Didn"t Exoect This From U Guys!!!!!!!!!!!!!!!!!!!!
     
  3. anth guitarist

    anth guitarist New Member

    didnt try but looks good....
    will tell ya after playin it
     
  4. electrickamie

    electrickamie New Member

    where can i get dis song???????
     
  5. @anth guitarist : thanks for replying

    @electrickamie : rockpk.com or chillimilli.com
     
  6. anth guitarist

    anth guitarist New Member

    dude i appreciate ur hard work but....honestly these tabs r around 55-60% accurate only.....i tried playin ur tabs with the song and there was a big difference.....
    welll nice try but try a bit more...u can come up with a better one i guess



    KEEP ROCKING!!!!!!!!!
     
  7. thnks dude for trying it out but these were not that bad pls try it again listen to da song carefully and i am sure u will find them correct

    Pls give more comments i am waiting for da comments by other IGTians
     
  8. Ethsaam

    Ethsaam New Member

    cool yaar, i just downloaded this song n am about to listen , but can guarantee that you really did a TREMENDOUS Job....keep up the pace bro....hope that these are rigt from every edge...lol...thnx yaar...
     

Share This Page