Chaand Mera dil

Discussion in 'Hindi Guitar Tabs - Submit or Request' started by Mehvar, May 7, 2004.

  1. Mehvar

    Mehvar *hippie~guitarist*

    heard this song in the movie Main Hoon Na...liked it
    its not complete...and the LAST verse is wrong

    Chaand Mera Dil

    e----------------------------------------------------------------
    B----------------------------------------------------------------
    G--0-2-3-7-5--------------5-3---------3-2-0--2/3----------
    D-------------------3-5-7-----------------------------2--------
    A----------------------------------------------------------------
    E----------------------------------------------------------------
    Chand Mera Dil Chandni ho tum Chand Sey hai Duur

    e----------------------------------------------------------------
    B----------------------------------------------------------------
    G--------5-3-----------------------------------------------------
    D-3-5-7----------------------------------------------------------
    A----------------------------------------------------------------
    E----------------------------------------------------------------
    Chaandi kahan
     

    Attached Files:

  2. chini26

    chini26 New Member

    See if what I added sounds right

    this song is so beautiful..great job tabbing it.

    e----------------------------------------------------------------
    B----------------------------------------------------------------
    G--0-2-3-7-5--------------5-3---------3-2-0--2/3----------
    D-------------------3-5-7-----------------------------2--------
    A----------------------------------------------------------------
    E----------------------------------------------------------------
    Chand Mera Dil Chandni ho tum Chand Sey hai Duur

    e----------------------------------------------------------------
    B----------------------------------------------------------------
    G-------0-------------------------------------------------------
    D---0-2---3-------------------------------------------------------
    A-3--------------------------------------------------------------
    E----------------------------------------------------------------
     
  3. devdas

    devdas New Member

    sounds really nice....r u planning on tabbing the whole song?
     
  4. urmilus

    urmilus New Member

    Try this out

    --------------------------------------------------------------------------------

    INTRO....
    E -----------0-------------------------------------
    B -------------1-----------------------------------
    G ------0-2------0--0------------------------------
    D --0-2---------------2-0--------------------------
    A ------------------------3-0----------------------
    E ------------------------------------------------
    --------------------------------------------------------------------------------


    E ---------------0--------------------------------
    B -------0--1-3------3-----------0---3----1-------
    G ---2---------------------0--2-------------------
    D ------------------------------------------------
    Chaand mera dil Chaandni ho tum


    E ----------------------------------------------
    B ---1---0-----0-1--------------------0---------
    G ----------2------------------0--2--------2----
    D ------------------3-------3-------------------
    A ----------------------------------------------
    Chaand se hai door chaandni kahaan
    --------------------------------------------------------------------------------


    E -----------0----------------------------------------------
    B ----0--1--3--3-----------0--3---1----1----0-----0-1-------
    G -2---------------0---2-----------------------2------------
    D ----------------------------------------------------3-----
    A ----------------------------------------------------------
    Laut ke aana hai yahin tumko jaa rahe ho tum


    E -------------------------------------------------------------
    B --------------0----------------------------------------------
    G -------0---2------2------------------------------------------
    D ---3---------------------------------------------------------
    A -------------------------------------------------------------
    Jaaao meri jaan..
    --------------------------------------------------------------------------------

    E ------------------------------------------------
    B ------------------------------------------------
    G ---0--0--0--2-- 2--2---------------2----2---2---
    D --------------------------3--3--3---------------
    A ------------------------------------------------
    E ------------------------------------------------
    Waise to har kadam milenge log sanam

    E ------------------------------------------------------
    B ----0-1---1--1--3-----1-------------------------------
    G --2----------------------2----2---0---0-----0-2--0----
    D ----------------------------------------------------3-
    A ------------------------------------------------------
    Milega sachchaa pyaar mushkil se... ho O O


    Dil ki dosti khel nahin koi
    Dil se dil hai milta yaar mushkil se
    --------------------------------------------------------------------------------



    E ------------------------------------------------------
    B ----------0---0--0----1--0--1--0--1-0-----------------
    G --0--0-0------------------------------2---------------
    D ------------------------------------------------------
    yahi to hai sanam pyaar ka thikana..

    E ------------------------------------------------------
    B ------------------------------------------------------
    G ---0----0----1----1------2----2-----------------------
    D ------------------------------------------------------
    main hoon main hoon main hooon....
    --------------------------------------------------------------------------------
     
  5. devdas

    devdas New Member

    has anyone heard the unplugged version of Chand Mera Dil by Silinder Pardesi....it's a really good verion of this song played on guitar...wonder if anybody can tab that one
     
  6. hey this one is for beginners i'll tab the rest later
    E-0--2--3--7--5 then E--0--2--3--5--3
    its chand mera dil chandi ho tum
    enjoy
     
  7. MARS

    MARS Mars Ji...Finally!!!!!

    Hey Guitaristofm....

    I think the version given by Urmilus is good...its nearly exact...

    also one suggestion..dont try to tab whole song on one string only...
    it will be difficult to play the distant notes..plus that is not the standard way either...

    try to spread the tabs on other strings also..

    :beer:
     
  8. thnx mars it was my first tabbing so better follow ur advice.
    i prefer E string but will try to tab wiz other strings
    thnx
     
  9. aniket.awati

    aniket.awati New Member

    E ----------------------------------------------
    B ---1---0-----0----------------------0---------
    G ----------2------------------0--2--------2----
    D ------------------3-------3-------------------
    A ----------------------------------------------
    Chaand se hai door chaandni kahaan

    slight change.....i think

    by the way
    +1 to urmilus
     

Share This Page