Bulleya Chords

Discussion in 'Pakistani Guitar Tabs - Submit or Request' started by zohaib, Sep 27, 2005.

  1. zohaib

    zohaib Shredder

    Hi All
    i need chords for Bulleya by CALL
     
  2. nadish

    nadish Active Member

    The chords for the song are same as Junoon's Version, just solo is different... and here is the intro by some Igtian (Dont remember his name) This intro is not 100% correct but u can figure them out easily...



    |----------------------------------------------------|
    |-3/5-3-5/7-5-3-5/7--10-10-10-9-9-9-3/5-3-5/7-5------|
    |----------------------------------------------------|
    |----------------------------------------------------|
    |----------------------------------------------------|
    |----------------------------------------------------|



    |----------------------------------------------------|
    |-3-2h3h2-0-2-3-5-7-9-10-9-10-9-10-------------------|
    |----------------------------------------------------|
    |----------------------------------------------------|
    |----------------------------------------------------|
    |----------------------------------------------------|


    Over here u need to be little faster :)


    |-9*-10-9-10-9-10-9-10-9-10--12-14-12-10-9h10h9------|
    |----------------------------------------------------|* means let it ring !
    |----------------------------------------------------|
    |----------------------------------------------------|
    |----------------------------------------------------|
    |----------------------------------------------------|


    |-7-9-7-9-5-7-5-7-5-7-3-5-3-5-3-5-2-3-2-3-2-3--------|
    |----------------------------------------------------|
    |----------------------------------------------------|
    |----------------------------------------------------|
    |----------------------------------------------------|
    |----------------------------------------------------|

    NOw this one Faster than ever !!! Move Fingers Fast BuDDy :p

    |-3-5-3-5-3-5--5-7-5-7-5--7-7-9-7-9----9-11-9-11-9-11|
    |----------------------------------------------------|
    |----------------------------------------------------|
    |----------------------------------------------------|
    |----------------------------------------------------|
    |----------------------------------------------------|

    |-11-12-11-12-11-12-14--16--18*----------------------|
    |----------------------------------------------------|
    |----------------------------------------------------|
    |----------------------------------------------------|
    |----------------------------------------------------|
    |----------------------------------------------------|
     
  3. larsan

    larsan K-Dash

    he asked 4 chords so plzzzzzzzzz gime also imran itz a request from me 2 u:)
     
  4. JAZZ

    JAZZ New Member

    well call sang this song in the battle of bands so badly, they didnt perform well in the concert
     
  5. larsan

    larsan K-Dash

    hey can anybody gimme me dosti solo...i have figured out the first part...but want the tabs of fast part which he plays can anybody help:)
     

Share This Page