branday ruddur

Discussion in 'Bengali Guitar Tabs - Submit or Request' started by roshan kindo, Mar 10, 2005.

  1. roshan kindo

    roshan kindo New Member

    hi u all,
    plz guys if u can tab me the bhoomi song called "branday ruddur"
    plz its urgent all the chords and interlude
     
  2. raj_aryan

    raj_aryan Moderator

    Hello Roshan
    Here It Is..
    Intro
    E--8---8---8-7---7--------------------------------------------
    B--8---8-----------10---10-8---8-------------8-------8-----8--
    G--------------------------------10---9--10---------9-----9---
    D-------------------------------------------------10----10----
    A-------------------------------------------------------------
    E-------------------------------------------------------------

    1st Intro Part

    E------------------------------------------------ [2x]
    B-----------------------------------8-----8------
    G------7---9/-7------7------------9-----9-------
    D--10------------10-----10--10---10----10--------
    A------------------------------------------------
    E------------------------------------------------

    2nd Intro Part

    E------10--12/10-----10-------------12-----12--- [2x]
    B--13------------13-----13--13-----13-----13-----
    G--------------------------------12-----12-------
    D------------------------------------------------
    A------------------------------------------------
    E------------------------------------------------
     
  3. nik_bokacheley

    nik_bokacheley :help: I'm a mad :sadbye:

    I'm unable to play it...can there be a simplier one?? I am not very good at guitar..:((..any suggestions??
     
  4. hotobhaga

    hotobhaga GraMMaR GoD :p:

    @Raj... well done...! reps for ya...:) ...

    @ nik... all u need practise...:grin: best of luck...! :)
     
  5. sayanakaharry

    sayanakaharry Forum Leader

    @raj
    byapok tabs hoyechhe
     
  6. LEFTY_GUITARIST

    LEFTY_GUITARIST -= M®. §öU†|-|ÞäW =-

    :annoyed: accha..................ei tab gulo ageo dkhechi :think:.............................. :p:
    prothome pacchilam na....tarpor pelam..................ananth222 pray same jinis post korechilo arinda.ray-r thread-e :p: ..................follow da link and scrool down.....now u can see............ :mad:
    http://www.indianguitartabs.com/showthread.php?t=3763
     
  7. hotobhaga

    hotobhaga GraMMaR GoD :p:

    "parde me rahene do parda na utado.. :p:" ... :rofl:... ya... ei tab onek agey post kora hoyechilo... dekhechilam'o... but... ki ache duniyai :eek:: ... tai chup mere giyechilam...!... :p: abar eita'o to hote pare that Raj tabbed it himself... jekhane tabs gulo accurate... shehetu tabs chart o to eki hobe naki... :p:...!
    ~!~peace~!~
     
  8. Subhro

    Subhro Argentina lost :"(

    this is not raj's work..
    copy pastin othrs tabs/chrds is his trademark..
    go thru al his prev posts, n u'll kno wht i'm talkin of..

    da tabs r by Ananth222..
    Credit goes to him.
     
  9. sayanakaharry

    sayanakaharry Forum Leader

    tai naki. eta to jantam na. chhi chhi erokom kora uchit na.
     

Share This Page