Boulevard of Broken Dreams RHYTHM

Discussion in 'English Guitar Tabs - Submit or Request' started by ashisharia, Jul 6, 2007.

  1. ashisharia

    ashisharia New Member

    pz plz tell me Boulevard of Broken Dreams GuiTAR RHYTHM along wid da chords
     
  2. god of guitar85

    god of guitar85 GUITARPLAYER

    well da rhythm of this song is pretty much like da wonderwall of oasis. oasis guyz hve even criticized greenday 4 copying their tune!!

    follow da chord progression of
    Em G D A Em

    from da part My shadows the only one..........
    chord progresSion is C G D A

    well try this out.lemme kno if u get it!!!!!
     
  3. parasdua

    parasdua New Member

    rythm

    D DDU (4 each chord), for d part b4 ".. my shadows.." (gap b/w 1st and 2nd downstrokes)

    DdDdU (4 each chord), for d part "my shadows..." (the small d indicates dat these strokes must b applied gently)

    n 4 d last chord in all chord cycles in d song : DUUDUDDU.
     
  4. javalogix

    javalogix New Member

    Actually this song is played with a CAPO on the first fret......
    This definitely sounds a lot better.....
     
  5. sukrut

    sukrut God Guitarist

    yeah i agree with javalogix... its one step higher....
     
  6. ganeshgautam

    ganeshgautam New Member

    song is in Fm!!!
    Fm-G#-D#sus2-A#sus2
    for chorus
    C#-G#-D#sus2-A#sus2



    transpose into Em if needed!!!!!!!!
     
  7. CRD ROX

    CRD ROX New Member

    "Boulevard Of Broken Dreams" Chords

    GREEN DAY LYRICS

    "Boulevard Of Broken Dreams"

    Em G
    I walk a lonely road
    D A Em
    The only one that I have ever known
    Em G
    Don't know where it goes
    D A
    But it's home to me and I walk alone

    (same pattern)
    I walk this empty street
    On the Boulevard of Broken Dreams
    Where the city sleeps
    and I'm the only one and I walk alone
    Em G D A
    I walk alone
    I walk alone

    I walk alone
    I walk a... C
    C G D A
    My shadow's the only one that walks beside me
    C G D A
    My shallow heart's the only thing that's beating
    C G D A
    Sometimes I wish someone out there will find me
    C G B
    'Til then I walk alone
    Em G D A
    Ah-ah, Ah-ah, Ah-ah, Aaah-ah,
    Em G D
    Ah-ah, Ah-ah, Ah-ah

    (same chords as previous Verse)
    I'm walking down the line
    That divides me somewhere in my mind
    On the border line
    Of the edge and where I walk alone

    Read between the lines
    What's ****ed up and everything's alright
    Check my vital signs
    To know I'm still alive and I walk alone

    I walk alone
    I walk alone

    I walk alone
    I walk a...

    (Same chords as previous Chorus)
    My shadow's the only one that walks beside me
    My shallow heart's the only thing that's beating
    Sometimes I wish someone out there will find me
    'Til then I walk alone

    Ah-ah, Ah-ah, Ah-ah, Aaah-ah
    Ah-ah, Ah-ah

    I walk alone
    I walk a...

    I walk this empty street
    On the Boulevard of Broken Dreams
    Where the city sleeps
    And I'm the only one and I walk a...

    My shadow's the only one that walks beside me
    My shallow heart's the only thing that's beating
    Sometimes I wish someone out there will find me
    'Til then I walk alone...


    The song is a very easy one, you have to get use to the chord pattern, which is very very easy, tell me if u lik it.. These are the chords of the original song..

    Thank You....
     
  8. robroy

    robroy New Member

    I play it this way : DD DU , its simple n easy to sing along with playing.......

    @CRD ROX
    the original scale is not Em it is Fm, or else wise u play with a capo at the 1st fret........
     
  9. asif_rox

    asif_rox New Member

    Bld

    The lilttle melody

    E 3s4 6s8 6 3s4

    Capo first fret a must for original key
    These are the Chords for the acoustic part only
    Strummig D/ddu or D/dudu

    Electric intro uses Diff chords with tremello effect









    Em G D A Em

    I walk a lonely road The only one I that have ever known

    G D A Em G D A

    Don't know were it goes But its home to me and I walk alone

    Em G D A Em

    I walk this empty street On the boulevard of broken dreams

    G D A Em G D

    Where the city sleeps And I'm the only one and I walk alone

    A Em G D A

    I walk alone I walk alone I walk alone I walk a-



    Chorus

    C G D Em

    My shadows the only one that walks beside me

    C G D Em

    My shallow hearts the only thing that's beating

    C G D Em

    Sometime s I wish someone out there will find me

    C G B

    Till then I'll walk alone



    Verse 2

    I'm walking down the line That divides me somewhere in my mind

    On the border line of the edge And were I walk alone

    Read between the lines of what's ****ed up and every things all right

    Check my vital signs to know I'm still alive And I walk alone

    I walk alone I walk alone I walk alone I walk a-



    Chorus repeat

    Em G D A x2

    Ah ah ah a I walk alone I walk a-



    Solo as chorus chords

    I walk this empty street On the boulevard of broken dreams

    Where the city sleeps And I'm the only one and I walk a-

    Chorus repeat
    Outro Em C D Db G Eb Em
     
  10. sandeepm05

    sandeepm05 New Member

    yor post is cool but

    hiiiii CRD ROX
    use E in place of Em, that sounds gud....
     
  11. rohilguitar

    rohilguitar New Member

    pls post

    an audio clip of dis song
     
  12. a#minor

    a#minor The Guitarist

    ur accurate chords


    (Em) (G) (Dsus2) (Asus2) (Em)
    I walk a lonely road, the only one that I have ever known
    (G) (Dsus2) (Asus2) (Em)
    Don't know where it goes, But it's home to me and I walk alone

    (Em)(G)(Dsus2)(Asus2)



    (Em) (G) (Dsus2) (Asus2) (Em)
    I walk this empty street, On the Boulevard of broken dreams
    (G) (Dsus2) (Asus2) (Em)
    Where the city sleeps, And I'm the only one and I walk alone



    (Em)(G)(Dsus2) (Asus2) (Em)
    I walk alone, I walk alone.
    (Em)(G)(Dsus2) (Asus2)
    I walk alone, I walk a....


    (C) (G) (Dsus2) (Asus2)
    My shadow's the only one that walks beside me
    (C) (G) (Dsus2) (Asus2)
    My shallow hearts the only thing that's beating
    (C) (G) (Dsus2) (Asus2)
    Sometimes I wish someone out there will find me
    (C) (G) (E/D)
    Till then I walk alone


    (Em) (G) (Dsus2) (Asus2)
    Ah-Ah Ah-Ah Ah-Ah Ahhh-Ah
    (Em) (G) (Dsus2) (Asus2)
    haaa-ah Ah-Ah Ah-Ah Ah-Ah



    (Repeat chord patterns for the rest of the song.)



    I'm walking down the line
    That divides me somewhere in my mind
    On the border line of the edge
    And where I walk alone

    Read between the lines
    What's ****ed up and everything's all right
    Check my vital signs, to know I'm still alive
    And I walk alone

    I walk alone, I walk alone
    I walk alone, I walk a....

    My shadow's the only one that walks beside me
    My shallow heart's the only thing that's beating
    Sometimes I wish someone out there will find me
    Till then I walk alone

    Ah-Ah Ah-Ah Ah-Ah Ahhh-Ah
    Ah-Ah Ah-Ah I walk alone, I walk a....

    SOLO
    Rhythm - (C)(G)(Dsus2)(Em) x3
    (C)(G)(E/D)


    I walk this empty street
    On the Boulevard of broken dreams
    Where the city sleeps
    And I'm the only one and I walk a...,

    My shadow's the only one that walks beside me
    My shallow heart's the only thing that's beating
    Sometimes I wish someone out there will find me
    Till then I walk alone

    Outro - (Em)(C)(Dsus2)(A/G)(G)(A/Ab) x4
     
  13. Sash

    Sash New Member

    |-------------------------------------------------------------------------------|
    | Intro |
    |-------------------------------------------------------------------------------|
    |Gtr. 1 - dist. with tremelo effect |
    | Fm G# D# A# Fm G# D# A# |
    |Gtr. 2 – dist - played 1st time |
    | (Fm) ~~~ ~~~ ~~~ ~~~ ~~~ ~~~ |
    |-------------------------------------------------------------------------------|


    1. I walk a lonely road the only one that I have ever known Don’t know where it goes but its only me and I walk alone
    2. I’m walking down the line That divides me somewhere in my mind On the border line of the edge And were I walk alone
    | Gtr. 1 - dist. w/ tremelo effect
    | Fm G# D# A# Fm G# D# A# |
    | Gtr. 3 – Acoustic with Capo 1st Fret |
    |---Em-Em-G--G--D--D--A--A-|-Em-Em-G--G--D--D--A--A--|
    |
    | Gtr. 2 – dist
    |--------------------------|--------------------------|----3/4---6/8\6-------3/4-|
    |--------------------------|--------------------------|--------------------------|
    |--------------------------|--------------------------|--------------------------|
    |--------------------------|--------------------------|----5/6---8/10\8------5/6-|
    |--------------------------|--------------------------|--------------------------|
    |--------------------------|--------------------------|--------------------------|


    1. I walk this empty street on the Boulevard of Broken Dreams When the city sleeps and I'm the only one and I walk alone
    2. Read between the lines of what's F**ked up and everything's all right Check my vital signs and know I'm still alive
    (Repeat Above)

    I walk alone I walk alone I walk alone I walk aa-
    | Gtr. 2 – dist
    |--------------------------|----3/4---6/8\6-------3/4-|--------------------------|
    |--------------------------|--------------------------|--------------------------|
    |--------------------------|--------------------------|--------------------------|
    |--------------------------|----5/6---8/10\8------5/6-|--------------------------|
    |--------------------------|--------------------------|--------------------------|
    |--------------------------|--------------------------|--------------------------|


    | Gtr. 1 & 2 - tremelo off, composite arrangement
    My shadow's only one that walks beside me
    |-C#5(x4)---------------G#5(x4)--------D#5(x4)--------------F5(x4)--

    My shallow heart's the only thing that’s beating
    |-C#5(x4)----------G#5(x4)-------D#5(x4)---------------F5(x4)-------

    Sometimes I wish someone up here will find me
    |-C#5(x4)-----------G#5(x4)--------D#5(x4)---------------F5(x4)-----

    til then I walk alone
    |-C#5(x4)----------G#5(x4)----------|-C5-C5-C5-C5-C5--------|


    Aa aa aa aA Aa aa aa aA
    | Gtr. 3 – Accoustic with Capo 1st Fret |
    |--Em-Em-G--G--D--D--A--A-|-Em-Em-G--G--D--D--A--A--|
    |Gtr. 1 - dist. w/ tremelo effect
    | Fm G# D# A# Fm G# D# A# |


    INTERLUDE
    Gtrs. 1 and 2 - once
    |-----------------------------|------------|---------------------------|--------------------------|
    |-----------------------------|------------|---------------------------|--------------------------|
    |---------------------8----8--|-3--3--3--5-|-6--6--6--6--------------8-|-8--8--8--8-------------6-|
    |-3----3----6----6----8----8--|-3--3--3--5-|-6--6--6--6-0-6--6--6--6-8-|-8--8--8--8---3--3--3-0-6-|
    |-3----3----6----6----6----6--|-1--1--1--3-|-4--4--4--4-0-6--6--6--6-6-|-6--6--6--6-x-3--3--3-0-4-|
    |-1----1----4----4------------|------------|--------------4--4--4--4---|------------x-1--1--1-----|

    Gtrs. 4 and 5 - dist.
    |---------------------------------------------------|--------------------------------------------------------|
    |---------------------------------------------------|--------------------------------------------------------|
    |----------12--13--13--13--13--13---17--17--15--15--|-15--15\12--12--13--13--13--13--13--13--13--13--13--13--|
    |----------x---x---x---x---x---x----x---x---x---x---|-x---x--x---x---x---x---x---x---x---x---x---x---x---x---|
    |------0---10--11--11--11--15--15--13--13--10--11--11--11--10--8--8--8--11--11--11--|
    |-17\--0--------------------------------------------|--------------------------------------------------------|


    |---------------------------------------------------|--------------------------------------------------------|
    |---------------------------------------------------|--------------------------------------------------------|
    |--10--10--10--12--13--13--13--13--13-17--17--15--15|-15--15--15\12--12--13--13--13--13--13--13--13--13--13\-|
    |--x---x---x---x---x---x---x---x---x--x---x---x---x-|-x---x---x--x---x---x---x---x---x---x---x---x---x---x---|
    |--8---8---8---10--11--11--11--11--11-15--15--13--13|-13--13--13\10--10--11--11--11--11--11--11--11--11--11\-|
    |---------------------------------------------------|--------------------------------------------------------|

    Gtrs. 4 and 5
    |---------------------------------------------------|--------------------------------------------------------|
    |---------------------------------------------------|--------------------------------------------------------|
    |-10--10--10--12--13--13--13--13--13/17--17--15--15-|-15--15--15\12--12--13--13--13--13--13--13--13--13--13\-|
    |-x---x---x---x---x---x---x---x---x--x---x---x---x--|-x---x---x--x---x---x---x---x---x---x---x---x---x---x---|
    |-8---8---8---10--11--11--11--11--11/15--15--13--13-|-13--13--13\10--10--11--11--11--11--11--11--11--11--11\-|
    |---------------------------------------------------|--------------------------------------------------------|
    | |
    |---------------------------------------------------|--------------------------------------------|-----------|
    |---------------------------------------------------|--------------------------------------------|-----------|
    |-6-------6-----------------------------------------|-8----8----8----8---------------------------|-----------|
    |-6-------6---------------6-------6-----------------|-8----8----8----8\x----3----3----3----3-----|-----------|
    |-4-------4---------------6-------6-----------------|-6----6----6----6\x----3----3----3----3--x--|-----------|
    |-------------------------4-------4-----------------|-----------------------1----1----1----1--x--|-----------|


    Gtr. 4 and 5
    |---------------------------------------------|----------------------------------------------|------------------------|
    |---------------------------------------------|----------------------------------------------|------------------------|
    |-10--10--10--10--12--13--13--13--13--17--15--|-17-17-17-17--17-17-17--17-17-17-17--17-17-17-|-17-17-17--17-17-17--17-|
    |-x---x---x---x---x---x---x---x---x---x---x---|-x--x--x--x---x--x--x---x--x--x--x---x--x--x--|-x--x--x---x--x--x---x--|
    |-8---8---8---8---10--11--11--11--11--15--13--|-15-15-15-15--15-15-15--15-15-15-15--15-15-15-|-15-15-15--15-15-15--15-|
    |---------------------------------------------|----------------------------------------------|------------------------|
    | |
    |---------------------------------------------|----------------------------------------------|------------------------|
    |---------------------------------------------|----------------------------------------------|------------------------|
    |-6-------6-----------------------------------|-5----5----5----5------5----5----5----5-------|--5----5----5----5----5-|
    |-6-------6---------------6-------6-----------|-5----5----5----5------5----5----5----5-------|--5----5----5----5----5-|
    |-4-------4---------------6-------6-----------|-3----3----3----3------3----3----3----3-------|--3----3----3----3----3-|
    |-------------------------4-------4-------15\-|----------------------------------------------|------------------------|


    |-------------------------------------------------------------------------------|
    | Outro |
    |-------------------------------------------------------------------------------|
    |(F5--F5-F5---C#5--C#5-C#5---D#5--D#5-D#5---D5--D5-D5---G#5--G#5-G#5---E5—E5-E5)| X3
    |-F5--F5-F5---C#5--C#5-C#5---D#5--D#5-D#5---D5--D5-D5---G#5-G#5-E5-E5 ) |
    |-------------------------------------------------------------------------------|
     
  14. AtoZ

    AtoZ New Member

    ^.. i think this is the most correct n complete... good one Sash...
     
  15. Sash

    Sash New Member

    Thanks AtoZ!!
     
  16. a#minor

    a#minor The Guitarist

    ohh my god



    ok ur posting is grest but i wonder why cant i understand it after working hourss on it

    just simplyfy it :shock: :shock: :shock: :shock:
     

Share This Page