Boomi Enna Suthuthey tabs by sathish lion

Discussion in 'Tamil Guitar Tabs - Submit or Request' started by sathish lion, Nov 5, 2013.

  1. sathish lion

    sathish lion New Member

    Intro epid I irukalama ::


    7---5---4—3—3-
    5---7---5---3


    7---5---4—3—3-
    5---7---5---3

    5----7---3 (2times )

    Boomi Enna Suthuthey
    7---5----4---3----3—5---7
    Ooma Nenju Kathuthey
    7---5----4—3---3----7---5
    En Munnadi Sukuran
    7----5--4---3----3—5---7
    Kaiya Katti Nikkuthey
    7---5---4---3--3—7---5

    Damage Aana Piece'su Naane
    0----7------5---3—0---7-----5---3
    Joker Ipo Hero Aanae
    0---3---57---5-3---1--0
    Kaanja Mannu Eeram Aanaen..
    0----7------5---3—0---7-----5---3
    Saanja Thoonu Nera Aanaen..
    0---3------5----7---5-3---1--0

    Hey Ennoda Paeru Seeraanathu
    5~7—7-7—8---7---5---3---5—7--6
    Hey Ennoda Paatha Naeraanathey
    5~7—7-7—8---7---5---3---5—7--4
    Hey Zero'vum Ippo Nooraanathey..
    5~7—7-7—8---7---5---3---5—7--4
    Ada Nooraanathey..
    3-5---7---7---8-----7

    Hey Ennoda Paeru Seeraanathu
    5~7—7-7—8---7---5---3---5—7--6
    Hey Ennoda Paatha Naeraanathey
    5~7—7-7—8---7---5---3---5—7--4
    Hey Zero'vum Ippo Nooraanathey..
    5~7—7-7—8---7---5---3---5—7--4
    Ada Nooraanathey..
    3-5---7---7---8-----7

    Santhu Pakkam Pogalaam
    9---7------5----3----3—5----7
    Panju Mittai Vaangalaam
    9---7----5—3---3----7----5
    Beachchu Pakkam Pogalaam
    9---7------5----3----3—5----7
    Ranga Raatinam Suththalaam
    9---7----5—3—5----3----7----5

    Vaazhka Mella Mella Okay Aanathey
    5-----7----5---3----5--3-3—5—3—1-3
    Jødi Vanthu Ippø Jølly Aanathey
    5---7----5---3-5--3--3—5—3-1-3
    Bike Ride'du Køøda Happy Aanathey
    5--7----5---3----5--3---3—5—--3—1-3
    Kaalam Vanthathey Gethu Aanathey
    5---7------5----3----5---3—5---3---1---3..

    Vaazhka Mella Mella Okay Aanathey
    5-----7----5---3----5--3-3—5—3—1-3
    Jødi Vanthu Ippø Jølly Aanathey
    5---7----5---3-5--3--3—5—3-1-3
    Bike Ride'du Køøda Happy Aanathey
    5--7----5---3----5--3---3—5—--3—1-3
    Kaalam Vanthathey Gethu Aanathey
    5---7------5----3----5---3—5---3---1---3..



    Èngeyø Pøgum Kaaththu
    5----7--5---7---9----10----9
    Ipø Èn Jannal Pakkam Veesum
    7-5--5---7-----5—7---9----10----9-
    Èn Køøda Pørantha Šaabam
    5----7----5---7---9—10—9--10
    Ipø Thannaalayae Theerum.
    7-5---5---7—5—7-----9-----8
    .

    Damage Aana Piece'su Naane
    0----7------5---3—0---7-----5---3
    Joker Ipo Hero Aanae
    0---3---57---5-3---1--0
    Kaanja Mannu Eeram Aanaen..
    0----7------5---3—0---7-----5---3
    Saanja Thoonu Nera Aanaen..
    0---3------5----7---5-3---1—0


    Boomi Enna Suthuthey
    7---5----4---3----3—5---7
    Ooma Nenju Kathuthey
    7---5----4—3---3----7---5
    En Munnadi Sukuran
    7----5--4---3----3—5---7
    Kaiya Katti Nikkuthey
    7---5---4---3--3—7---5


    by sathish lion ...

    tell the mistakes ... frnds ..


    and ensoy
     
  2. bujibhuvana

    bujibhuvana New Member

    Seriously u ve such a rare talent man!!!!!!!! all the best :)
     
  3. sathish lion

    sathish lion New Member

    All Is well. .
     
  4. sathish lion

    sathish lion New Member

Share This Page