Bolo Bolo_EP

Discussion in 'Pakistani Guitar Tabs - Submit or Request' started by entityp4ever, Apr 26, 2005.

  1. entityp4ever

    entityp4ever New Member

    Hi! loong time but im bac!
    U REally need an electric guitar for this song but its good on acoustic too!!

    E5:8-10-10-xxx D5:688xxx G5:577xxx F5:466xxx

    Intro:
    E5 E5 E5 E5 E5 E5 E5 D5 D5 D5 D5 D5 D5 D5

    E5 D5(S)E5
    bolo bolo tumne kya dekha
    E5 D5(S)E5
    bolo bolo tumne kya dekhaaaa
    E5 D5
    Tumnay meray main
    E5 E5 E5 E5 D5 (s) E5
    kya dekha

    E5 D5(S)E5
    aise to chehre hazaaron hai
    E5 D5(S)E5 D5
    meri udaas nigaahon main tumne kya dekha
    E5
    kya dekha

    -----------------------------------------------
    -----------------------------------------------
    -----------------------------------------------
    ---------------------10-10-12-12-13-13-15-15---
    8-8-10-10-11-11-13-13--------------------------
    -----------------------------------------------
    E5
    meri gaadi dekhi
    D5(S)E5
    ya mera bangla dekha
    E5 D5
    ya mera saara bank balance dekha
    E5
    na mere sapnay dekhe
    D5(S)E5
    na mera jazba dekha
    D5
    na mera toota hua dil dekha
    E5
    tumhe pyaar mujhse nahi hai
    D5(S)E5
    pyaaaaar mujhse nahi hai
    E5 D5
    pyaar mujhse nahi haiiii
    E5
    main tumse door jaana chaahoon
    D5(S)E5
    ya paas cahla aaoun
    D5
    ikraar mujhse nahi hai

    woooo ....ooooo....
    E5 E5 E5 E5 E5 E5 E5 D5 D5 D5 D5 D5 D5 D5
    woooo ....ooooo....


    E5 D5(S)E5
    bolo bolo tumne kya dekha
    E5 D5(S)E5
    bolo bolo tumne kya dekhaaaa
    E5 D5
    Tumnay meray main
    E5 E5 E5 E5 D5 (s) E5
    kya dekha

    E5 D5(S)E5
    aise to chehre hazaaron hai
    E5 D5(S)E5 D5
    meri udaas nigaahon main tumne kya dekha
    E5
    kya dekha

    -----------------------------------------------
    -----------------------------------------------
    -----------------------------------------------
    ---------------------10-10-12-12-13-13-15-15---
    8-8-10-10-11-11-13-13--------------------------
    -----------------------------------------------
    E5
    Ye khbar na thi
    D5(S)E5
    Ye batana tha
    D5
    Jhoota pyaar hoooooo
    E5
    Tumnay apna kaha
    D5(S)E5
    Mujhe pyaar diya
    D5
    Lekin tum koi aur hooooo

    E5
    tumhe pyaar mujhse nahi hai
    D5(S)E5
    pyaaaaar mujhse nahi hai
    E5 D5
    pyaar mujhse nahi haiiii
    E5
    main tumse door jaana chaahoon
    D5(S)E5
    ya paas cahla aaoun
    D5
    ikraar mujhse nahi hai

    E5
    tumhe pyaar mujhse nahi hai
    D5(S)E5
    pyaaaaar mujhse nahi hai
    E5 D5
    pyaar mujhse nahi haiiii
    E5
    main tumse door jaana chaahoon
    D5(S)E5
    ya paas cahla aaoun
    D5
    ikraar mujhse nahi hai HOOOOOOOOOOOOOo

    --8-8-8-7-7-7-6-6-6-6-5-5s6-6h8------
    -8-8-8---8-8---8-8-8---8-------------
    -------------------------------------X2
    -------------------------------------
    -------------------------------------
    -------------------------------------
    Jhootay sapnay

    E5 E5 E5 E5 E5 E5 E5 E5 D5 D5 D5 D5 D5 D5 D5 D5 D5 G5 G5 G5 G5 G5 G5 G5 G5 G5 F5 F5 F5 (S)
    D5 D5 D5 (S) E5

    E5 E5 E5 E5 E5 E5 E5 E5 D5 D5 D5 D5 D5 D5 D5 D5 D5 G5 G5 G5 G5 G5 G5 G5 G5 G5 F5


    E5
    meri gaadi dekhi
    D5(S)E5
    ya mera bangla dekha
    E5 D5
    ya mera saara bank balance dekha
    E5
    na mere sapnay dekhe
    D5(S)E5
    na mera jazba dekha
    D5
    na mera toota hua dil dekha

    High tone:
    E5
    tumhe pyaar mujhse nahi hai
    D5
    pyaaaaar mujhse nahi hai
    F5 D5
    pyaar mujhse nahi haiiii
    E5
    main tumse door jaana chaahoon
    D5
    ya paas cahla aaoun
    F5 D5
    ikraar mujhse nahi hai
    E5 D5 F5 D5 Then play: F5 F5 F5 F5 D5 D5 D5 D5 E5
    yaeeyaeeyaeeyaee X2

    RATE THIS SONG! THANKS AND :rockon:
     
  2. BIG_EVIL

    BIG_EVIL Guitaring Machine

    v nice................
     
  3. Aka Oz

    Aka Oz /\K/\ - Ozy

    entityp well done............yeh rock ........yeh do me a fav can yeh post me the chords of ehsass
     
  4. entityp4ever

    entityp4ever New Member

    Hi

    Hey AkA OZ I actually found chords/tabs for this song and its tabbed by Umarboy
    So here it is

    e-----------0-----------0------------------|
    B---------0---0-----------0----------------|
    G-------0-------0-----------0--------------|
    D-----2---------------0-------2------------|
    A---2---------------2----------------------|
    E-0---------------0------------------------|
    Mein Aik Fard Houn

    e-----------3------------3---------------|
    B---------3---3------------3-------------|
    G-------0-------0------------0-----------|
    D-----0---------------0-------0----------|
    A---2---------------2--------------------|
    E-3---------------3----------------------|
    ya aik ehsaas houn

    e-----------0-----------0------------------|
    B---------0---0-----------0----------------|
    G-------0-------0-----------0--------------|
    D-----2---------------0-------2------------|
    A---2---------------2----------------------|
    E-0---------------0------------------------|
    mein aik jisam houn


    e-----------3------------3--------------|
    B---------3---3------------3------------|
    G-------0-------0------------0----------|
    D-----0---------------0-------0---------|
    A---2---------------2-------------------|
    E-3---------------3---------------------|
    ya rooh ki pyas houn

    e-----------0------------0---------------|
    B---------2---2------------2-------------|
    G-------2-------2------------2-----------|
    D-----2---------------2------------------|
    A---0---------------0--------------------|
    E-0---------------0----------------------|
    ke sach ki talash hai

    e-----------3------------3---------------|
    B---------3---3------------3-------------|
    G-------0-------0------------0-----------|
    D-----0---------------0-------0----------|
    A---2---------------2--------------------|
    E-3---------------3----------------------|
    durr akash hai

    e-----------0------------0---------------|
    B---------2---2------------2-------------|
    G-------2-------2------------2-----------|
    D-----2---------------2------------------|
    A---0---------------0--------------------|
    E-0---------------0----------------------|
    manzil pas nahi

    e-----------3------------3----------------|
    B---------3---3------------3--------------|
    G-------0-------0------------0------------|
    D-----0---------------0-------0-----------|
    A---2---------------2---------------------|
    E-3---------------3-----------------------|
    ke tu mere pas hai

    e-----0-0--0-0-0-0-----0--0---0-0-------------------|
    B-----0-0--0-0-0-0-----0--0---2-0-------------------|
    G-0-0-0-0--0-0-0-0--0--0--0---2-0-------------------|
    D-2-2-2-2--2-2-2-2--2--2--2---2-2-------------------|
    A-2-2-2-2--2-2-2-2--2--2--2---0-2-------------------|
    E-0-0-0-0--0-0-0-0--0--0--0---0-0-------------------|


    Em G
    kabhe main amal hoon kabhe bayaml hoon
    EM G
    gar tujhmain nahe to phir baymehl hoon
    A G
    keh sack ki talaah hai dur aakash hia
    A G
    manzil paas nahe kya tu meray pass hai


    e-----0-0--0-0-0-0-----0--0---0-0-------------------|
    B-----0-0--0-0-0-0-----0--0---2-0-------------------|
    G-0-0-0-0--0-0-0-0--0--0--0---2-0-------------------|
    D-2-2-2-2--2-2-2-2--2--2--2---2-2-------------------| x3
    A-2-2-2-2--2-2-2-2--2--2--2---0-2-------------------|
    E-0-0-0-0--0-0-0-0--0--0--0---0-0-------------------|


    G D A
    na naaa naaaaa na na na naaa na an naaaa
    G D
    na naaa naaaaa na na na naaa na an naaaa
    G D A
    na naaa naaaaa na na na naaa na an naaaa
    D A
    na na naaaa naaaafs

    A G
    keh sach ki talash hai door aakhash hai
    A G
    keh manzil pass nahe Kya tuu meray passhai
     
  5. Aka Oz

    Aka Oz /\K/\ - Ozy

    thxxxxxxxxxxxxxxxxxxxxxxxxxxx
     

Share This Page