black dog - led zeppelin

Discussion in 'English Guitar Tabs - Submit or Request' started by zing, Dec 31, 2005.

  1. zing

    zing Machine Head

    hey
    here r the tabs 4 black dog intro & also link to my attempt to play it - ur comments / critiqs r welcom :)


    lo-fi URL: http://www.soundclick.com/util/getplayer.m3u?id=3282303&q=lo
    hi-fi URL: http://www.soundclick.com/util/getplayer.m3u?id=3282303&q=hi

    Code:
    black dog - led zep
    tabs copyleft 2005 (L) zing. redistribute at will.
    
    
    chords: A C D
    
    hb: bend half tone 
    / : slide
    p : pulloff
    h : hammeron
    
    intro:
    
    E |----------------------------|------------------------------------|
    B |------------------6hb-------|---8---10---6h8p6h8-------6hb-------|
    G |------5-6-7-------------7---|----------------------7---------7---|
    D |--7-----------7-------------|------------------------------------|
    A |----------------------------|------------------------------------|
    E |----------------------------|------------------------------------|
    
    E |----------------------------|
    B |----------------------------|
    G |--5-6-7---------------------|
    D |----------5-7-------5-------|
    A |----------------8-------5---|
    E |----------------------------|
    
    E |-----------------------------|-----------------------------|
    B |-----------------------------|-----------------------------|
    G |-------------------5hb-------|-------------------5hb-------|
    D |--------5-6-7------------7---|--------5-6-7------------7---|
    A |---5/7----------7------------|---5/7----------7------------|
    E |-----------------------------|-----------------------------|
    
    E |-----------------------------------------|
    B |-----------------------------------------|
    G |-------------------5-6-7-------6hb-------|
    D |--------5-6-7--------------7---------7---|
    A |---5/7----------7------------------------|
    E |-----------------------------------------|
    
    E |------------------------------------|----------------------------|
    B |---8---10---6h8p6h8-------6hb-------|----------------------------|
    G |----------------------7---------7---|--5-6-7---------------------|
    D |------------------------------------|----------5-7-------5-------|
    A |------------------------------------|----------------8-------5---|
    E |------------------------------------|----------------------------|
    
    
    chord sequence : A A C A | A A A C A | A A A D C A |
    
    
     
  2. slash_i_m

    slash_i_m Laid to Rest

    i havent heard the actual song coz i'm not much into zeppelin but that was a neat acoustic piece i'l download the actual song right away.very nice recording.keep rockin!
     
  3. knight_guitar

    knight_guitar Lead Guitarist

    Sounds good to me .. dude.. nice.. if this was ur first attempt with black dog i would surely say.. excepetionally well with ur first attempt keep playing hard..
     
  4. zing

    zing Machine Head

    hey guys thanx - must confess its not 1st attempt - frnd o mine showd me the notes long back n bin tryin ever since :) not v sure of the double hammeron tho -if thats the way its playd??!!
     
    knight_guitar likes this.
  5. knight_guitar

    knight_guitar Lead Guitarist

    that did'nt sounded like double harmanoic dude...but still a good attempt.. i'm giving u reps for ur attempts..
     
  6. zing

    zing Machine Head

    ya i jus cudnt get thos double hammerons :eek:: - btw wasnt posting 4 reps hehe but thnx newayz m8 :)
     

Share This Page