Bhula do (Acoustic) Solo Tabs

Discussion in 'Pakistani Guitar Tabs - Submit or Request' started by faiqrock, Oct 28, 2006.

  1. faiqrock

    faiqrock XaiQ

    :rock: hey guys
    well many of igt guys were asking abt solo of Bhula do-Raeth..so here it is....
    i hope it's ok :p::rock: :rock:
    Code:
    e|-----3-------------------------5-8-8-8-8-8-7-7-7-5-5-3s5-3-3-5-3--------|
    b|-------5---------5-6-8-7-7---5--------------------------| 
    g|-2-5-------7-5-7-----------7-------------------------|
    d|-----------------------------------------------|
    a|-----------------------------------------------|
    e|-----------------------------------------------|
    
    e|---8-7-5-3-5---8-7-8-10----s12-10-8-7-10-8-7-5-----------------------|
    b|-5-----------5----------8--------------------------5-6-8-5h6p5s3-5-------------| 
    g|------------------------------------------------s7------------------|
    d|---------------------------------------------------------------|
    a|-------------------------------------------------------------|
    e|-----------------------------------------------------------|
    
    e|-----------------------------------------------|
    b|-----------------------------------------------| 
    g|-5-5-5-2-5-2-5-7-7s9-7-7-5-7---5-5-2-5-2-1-2-1h2p1-2----------------------|
    d|-------------------------------------------------------3-2|
    a|-----------------------------------------------|
    e|-----------------------------------------------|
     
  2. faiqrock

    faiqrock XaiQ

  3. faiqrock

    faiqrock XaiQ

    emm i hv also tabbed half part of the Original Solo....
    so pasting that half part aswell
    Code:
    e|------------------------------------------------------------15^17V15-12-15-12-13-12-15-13-13-12------------------------|
    b|-10-12-13~--13h15p12h13--s13-12~~--s10-12-13~--13h15p12h13------------------------------------| 
    g|-----------------------------------------------|
    d|-----------------------------------------------|
    
    
    e|-------15-------------------------20^21-p18------------------------------|
    b|-15^17----15^17(Relese)-13-15~~\------------20^21-p18------------10-13-15-12-----------| 
    g|------------------------------------------------------20^21-p18------|
     
    .:SpY_GaMe:. and RoMeO_Gguru like this.
  4. nice :) thank you
    i'll try them out soon
     
  5. nik_bokacheley

    nik_bokacheley :help: I'm a mad :sadbye:

    I'll try them too.. Thanks anyways..:p:

    nIK!:nw:
     
  6. god of guitar85

    god of guitar85 GUITARPLAYER

    nice work dude. ur recording was good too.
     
  7. .:SpY_GaMe:.

    .:SpY_GaMe:. New Member

    do u really play some guitar or was that post only for the sake of pc???:p:
     
  8. RoMeO_Gguru

    RoMeO_Gguru .::idiotic crybaby::.

    nice solo..dude..thnks man u posted the solo ma req....
     
  9. faiqrock

    faiqrock XaiQ

    @Lavina: k ^.^
    @Nik: k ^.^
    @G.O.Guitar: thnx dude....
    @Spy : :eek:fftopic: lol
    @Romeo: Welcome
     
  10. .:SpY_GaMe:.

    .:SpY_GaMe:. New Member

    :eek:: :eek:: dude havent heard that song b4

    managed to get the link though http://youtube.com/watch?v=41xNfpYXPCk for those who never heard that before

    ur recording was quite nice


    tabs r also quite accurate reps for yA:think:
     
  11. electrickamie

    electrickamie New Member

    hmm.......i guess thz r not d rite notes......sorry faiq
     
  12. RoMeO_Gguru

    RoMeO_Gguru .::idiotic crybaby::.

    hey dude u've heard the acoustic version of bhula do means unplugged the tabs are exactly same ....so no ways these tabs are rong...i've also chked thm
     
  13. .:SpY_GaMe:.

    .:SpY_GaMe:. New Member

    sounds quite okie to me

    y dont u make the required corrections:think:
     
  14. faiqrock

    faiqrock XaiQ

    emm yeah as Spy said...why dont u post ur version :think: :think:
    @Spy: thnx yara...the offtopic emo is quite RUDE lol....but nvm..^.^
     
  15. SG1

    SG1 "Brown Jesus"

    what in the world is offtopic emo
     
  16. faiqrock

    faiqrock XaiQ

    :eek:fftopic: << offtopic emotion(emo) lol
     
  17. electrickamie

    electrickamie New Member

    @faiqrock
    ........man my apologies.......d solo waz pretty correst (i dont know wat i waz tryin in d begining).... but its still incomplete......newz nice work......
     
  18. faiqrock

    faiqrock XaiQ

    No prob ^.^ Thnx for comments
     
    sanju_strings likes this.
  19. electrickamie

    electrickamie New Member

    @faiqrock
    well man..........can u help me wid dis.........i need d solo of "aankho ke saagar" by fuzon...........cudnt find it here.......it wud b gr8 if u cud help me wid it.......thxxx
     
  20. pushedaway

    pushedaway New Member

    can u please post the complete song's tabs?

    i need 'em.
     

Share This Page