Bheegi Yaadein by Junoon

Discussion in 'Pakistani Guitar Tabs - Submit or Request' started by invincible2k, Apr 22, 2005.

  1. invincible2k

    invincible2k New Member

    Standard Tuning

    Try to play barre chords here. They sound much better.

    D x57775
    E x79997
    F#m x 9 11 11 10 9

    Intro:

    Piece1 x 4
    e|------------------------5-7-5-4-7-5---------------------------------|
    B|----7-10-9---10-9-5-------------------------------------------------|
    G|---------------------------------------------------------------------|
    D|--0--------0---------------------------------------------------------|
    A|---------------------------------------------------------------------|
    E|---------------------------------------------------------------------|


    [D]Palat kay jo dekha [E] aankhein hoeen nam [D]
    [D]Aaya nazar jab [E] adhoora sa jeevan

    Piece1

    Jee[F#]van aa[E]ya mujh ko na[D]zar
    [D]Totay totay wa[E]aday
    [D]Ujhray ujhray sap[E]nay
    [D]Totay totay wa[E]day
    [D]Dhoondain waqt k[E]ay narm saa[D]ey

    [D]Kal bhi tha khandar [E]
    [E]Ab bhi hai veeran
    Manga h[F#]ai jee[E]van pal bhar sah[D]ara

    [D]Yaadein bheegi yaa[E]dein
    [D]Gham say sonain [E] na dein
    [D]Yaadein bheegi yaa[E]dein
    [E]Jeenay na de[D]in
     
  2. Orange Guitar

    Orange Guitar IGT's ALLROUNDER

    gud..nice work...:rockon:
     
  3. aysh

    aysh -|h3 ori9in4| (ui!aris-|-

    some correction to the intro. its actually


    e|-------------------------9------9--------------------------|
    B|----7--9--7---9--7----7---7------7---------------------------|
    G|--7---------7------7--------7------7--------------------------------------|
    D|-----------------------------------------------------------------|
    A|---------------------------------------------------------------------|
    E|---------------------------------------------------------------------|

    chords are fine but i think an A chord wud also do fine instead of F#m
     
  4. Orange Guitar

    Orange Guitar IGT's ALLROUNDER

    i didn't try the intro...nemo's intro is gud...2k gave nice chords and nemo gave nice intro :)
     
  5. zohaib

    zohaib Shredder

    whcih song is this ??
     
  6. Orange Guitar

    Orange Guitar IGT's ALLROUNDER

    junoon's song by ali azmat...guitarist salman...bass guitarist bryan..dunno abt the drummer!!!!! :):):) a very nice song...u shld download it!!!!
     
  7. zohaib

    zohaib Shredder

    which album ??
     

Share This Page