Bheegi Bheegi Si Hai (TABS)+ AUDIO (COMPLETE)

Discussion in 'Hindi Guitar Tabs - Submit or Request' started by shantanukr, Jul 5, 2006.

  1. shantanukr

    shantanukr yEh DiL mAanGe m0rE

    Hi guys, i tried to tab out the GANGSTER song "Bheegi Bheegi Si".. I have also recorded that song on my Givson Electric Guitar...

    Chk it out and do REP me if u like it...

    Audio Link : ( Full with Distortion, Drum Pads, and Flanger effects )
    http://www.soundclick.com/bands/pagemusic.cfm?bandID=458470

    ******************************************
    Song Name : Bheegi Bheegi Si Hai
    Movie : Gangster

    Tabbed By : S.h.a.n.t.a.n.u. .K.r.
    *******************************************
    [INTRO]
    E---------0--
    B-------0----
    G-----9------
    D----9-------
    A------------
    E-------------

    E---------0--
    B-------0----
    G-----7------
    D----7-------
    A------------
    E-------------

    [SONG]

    E-------------------------------
    B-------------------------------
    G-------------------------------
    D--9-7-9-7-9-7--9-7-9-7-9-7---
    A-------------------------------
    E-------------------------------

    Bheegi Bheegi si hain -- raatein bheegi bheegi
    yaadein bheegi bheegi -- baatein bheegi bheegi

    E----------------------
    B----------------------
    G----------------------
    D--9-9--9-10-9-5-7-7--
    A----------------------
    E----------------------

    Aankhon mein kaisi nami hain

    E-------------------------------
    B-------------------------------
    G-------------------------------
    D--7-5-------9-7----7-7-5------
    A-------8-7------------------8-7--
    E-------------------------------

    ahaa a haa ahaa .. aha ha haa

    Play 'Em' chord rocking style, then switch to tabs

    E-------------------------------------
    B-------------------------------------
    G-------------------------------------
    D----------------------------9-7---------
    A--7-7h9-9/10--10-10--10-------7-9-9--
    E--------------------------------------

    Kaisi hai yeh zindagani ...

    E-----------------
    B-----------------
    G-----------------
    D-----------------
    A--5-2-3-3--2-0--
    E-----------------

    Zindagani ...

    E-----------------------
    B-----------------------
    G-----------------------
    D-----------------------
    A--7-7-7--7-6-6-9-9-7--
    E-----------------------

    Hamari adhuri kahani ..

    Chords are already posted by others ..... so enjoy and do post ur comments.
    :cool:
     
    himika9 likes this.
  2. himika9

    himika9 !!!WANNA B ROCKSTAR!!!

    woooooooooowww nice job there!!
     
  3. shantanukr

    shantanukr yEh DiL mAanGe m0rE

    thnx himika .... for ur comments and REPS ..

    :)

    and rest of U , comeon only 1 reply after 32 views ..

    comeon yaar, pendown ur thoughts :nw:
     
  4. angel_of_sin

    angel_of_sin bassist.....

    woah dude!!!!Nice chords and tabs!!!!!!!!
     
  5. NiGHtWoLF

    NiGHtWoLF New Member

    nice job bro :)
     
  6. shantanukr

    shantanukr yEh DiL mAanGe m0rE

    Thnx angelofsin & Nightwolf ..

    :)
     
  7. rickkky_rich

    rickkky_rich Banned

    gr8 stuff dude...keep up the good job!!!
     
  8. dreamsnatcher

    dreamsnatcher New Member

    Thanx a lot
     
  9. Morbid_Angel

    Morbid_Angel Sid the sloth

    hmm


    nice job man !
     
  10. nabzy

    nabzy New Member

    great tabs! keep it up!
     
  11. gup981

    gup981 New Member

    hey dude..nice one..enjoy...
     
  12. holylord

    holylord New Member

    need solo of this songs ..
     

Share This Page