Badi muskil he khoya mera dil he.... tabs...

Discussion in 'Hindi Guitar Tabs - Submit or Request' started by inevitable, Jul 22, 2011.

  1. inevitable

    inevitable New Member

    Guys i am not a pro in guitar but have tabbed the song Badi muskil he. I think the tabs are pretty accurate. Try it for urself and reply if u have any suggestions....

    E-9----9---------------9----9-----------------------------------
    B--12---12--10--10----12----12--10-10-------------------------
    G-------------------------------------------------------------
    D-------------------------------------------------------------
    A-------------------------------------------------------------
    E-------------------------------------------------------------
    Badi Muskil Hai Khoya Mera Dil Hai

    E-----12-10-12-10-9-10-9-7-9-10-9-7----------------------------
    B-10-----------------------------------------------------------
    G-------------------------------------------------------------
    D-------------------------------------------------------------
    A-------------------------------------------------------------
    E-------------------------------------------------------------
    Koi Usey Dhond Ke Laye Ae Na

    E-------------------------------------------------------------
    B----------10---------9--9--9---12--9--9-----------------------
    G--11--11----11--11-------------------------------------------
    D-------------------------------------------------------------
    A-------------------------------------------------------------
    E-------------------------------------------------------------
    Ja Ke Kahan Mein Ra pat Likhaoun

    E-12--12-14-12-10-9-10-9-7-9-10-9-7---------------------------
    B-------------------------------------------------------------
    G-------------------------------------------------------------
    D-------------------------------------------------------------
    A-------------------------------------------------------------
    E-------------------------------------------------------------
    Koi BatLae Ae Na

    E-----------------9-------------------------------------------
    B---------10--12---12-----------------------------------------
    G---9--11-----------------------------------------------------
    D-------------------------------------------------------------
    A-------------------------------------------------------------
    E-------------------------------------------------------------
    Mein Roun ya Hansoun
    E-------------------------------------------------------------
    B-----------12----9-10----------------------------------------
    G-------------------------------------------------------------
    D--11-11-11----11---------------------------------------------
    A-------------------------------------------------------------
    E-------------------------------------------------------------
    Karoun Mein Kya Karoun
     

Share This Page