Backstreet Boys - Incomplete (acoustic)

Discussion in 'English Guitar Tabs - Submit or Request' started by skaw, Jun 18, 2005.

  1. skaw

    skaw snooze

    Chords

    F#m - 244222

    E - 022100

    C#m - 466544

    B - x24442

    A - x02220


    Intro:

    e|---------------------------------------------------------------------------|
    B|---------------------------------------------------------------------------|
    G|------2----------1------------1----------------------2-----------1----------1------------------|
    D|----4--4------2--2---------2--2--2-1-1---------4---4-------2--2------2---2--2-1-1-------|
    A|---4---------2------------2---------------4------4-----------2---------2----------------2--4-|
    E|-2---------0------------0-----------------------2----------0----------0------------------------|


    F#m C#m
    Empty spaces

    E B
    Fill me up with holes

    F#m C#m
    Distant faces

    E B
    With no place left to go

    F#m C#m
    Without you within me

    E B
    I can't find no rest

    F#m C#m
    Where I'm going
    E B A
    is anybody's guess


    C#m/ E
    I've tried

    B A
    To go on like I never knew you

    C#m/ E
    I'm awake

    B A
    But my world is half asleep

    C#m/ E
    I pray

    B
    For this heart to be unbroken

    A C#m B
    But without you all I'm going to be is


    Incomplete


    F#m C#m E B


    Verse 2 (same as Verse 1):

    F#m C#m
    Voices tell me
    E B
    I should carry on
    F#m C#m
    But I am swimming
    E B
    In an ocean all alone
    F#m C#m
    Baby, my baby
    E B
    It's written on your face
    F#m C#m
    You still wonder
    E B
    If we made a big mistake


    C#m/ E
    I've tried

    B A
    To go on like I never knew you

    C#m/ E
    I'm awake

    B A
    But my world is half asleep

    C#m/ E
    I pray

    B
    For this heart to be unbroken

    A C#m B
    But without you all I'm going to be is

    A
    Incomplete


    Bridge:

    C#m B
    I don't mean to drag it on
    E A
    But I can't seem to let you go
    C#m B E F#m
    I don't wanna make you face this world aloooone


    e|---------------------------------------------------------------------------|
    B|---------------------------------------------------------------------------|
    G|------2----------1------------1----------------------2-----------1----------1------------------|
    D|----4--4------2--2---------2--2--2-1-1---------4---4-------2--2------2---2--2-1-1-------|
    A|---4---------2------------2---------------4------4-----------2---------2----------------2--4-|
    E|-2---------0------------0-----------------------2----------0----------0------------------------|
    I want to let you go.................


    C#m/ E
    I've tried

    B A
    To go on like I never knew you

    C#m/ E
    I'm awake

    B A
    But my world is half asleep

    C#m/ E
    I pray

    B
    For this heart to be unbroken

    A C#m B
    But without you all I'm going to be is

    A
    Incomplete


    Outro:

    e|---------------------------------------------------------------------------|
    B|---------------------------------------------------------------------------|
    G|------2----------1------------1----------------------2-----------1----------1------------------|
    D|----4--4------2--2---------2--2--2-1-1---------4---4-------2--2------2---2--2-1-1-------|
    A|---4---------2------------2---------------4------4-----------2---------2----------------2--4-|
    E|-2---------0------------0-----------------------2----------0----------0------------------------|

    Incomplete (play over until fade out)






    http://ultimate-guitar.com/tabs/b/backstreet_boys/incomplete_acoustic_tab.htm
    I have just modified it a bit to satisfy myself, u can play how it is suggested in that link

    luk at the text file for the better version
     

    Attached Files:

  2. amit82cse

    amit82cse Silent observeR

    Notes for C#m are incorrect.

    C#m = 446654

    Your notes match to G#
     
  3. skaw

    skaw snooze

    aite.. thanx for the correction ..
     
  4. slipknot_555

    slipknot_555 RuHH..

    hey amit atleast appreciate skaw's work!!! neways perfect chords n intro! :)
     
  5. aesculapius

    aesculapius New Member

    Nice work man,do u have the chords for the song "Love is on the way" by Saigon Kick
     

Share This Page