Baatein kuch ankahin si - METRO with SOLO

Discussion in 'Hindi Guitar Tabs - Submit or Request' started by ~RIDS~, May 4, 2008.

  1. ~RIDS~

    ~RIDS~ New Member

    D A G A
    baatein kuchh ankahee si, kuchh ansuni si hone lagi
    D A G A
    kaabu dil pe raha na, hasti hamaari khone lagi
    D G
    wo o o o o o
    D A
    wo o o o o o........
    D A Dsus2
    shaayad yahi hai pyaar


    D G Em A
    keh de mujhse dil mein kya hai, aisa bhi kya guroor
    D G Em A
    tujhko bhi toh ho raha hai thoda asar jaroor
    Em A G D
    Yeh khaamoshi jine na de, koi toh baat ho

    D G
    wo o o o o o
    D A
    wo o o o o o........
    D A Dsus2
    shaayad yahi hai pyaar




    tu hi meri roshani hai, tu hi chiraag hai
    dheere dheere mit jaayega, halka sa daag hai
    yeh zeher bhi yuun piya hai, jaise sharaab ho
    (same as above)





    SOLO :

    E---7s9-7---------------------------------------------------------------
    B---------10-----10-7-8------8--8--7-8-7-5-----------------------------
    G------------------------------------------------------------------------
    D------------------------------------------------------------------------
    A------------------------------------------------------------------------
    E------------------------------------------------------------------------



    Corrections......suggestion.......compliments all accepted......do give ur view on this.......


    by
    Vivek.......
     
  2. ~RIDS~

    ~RIDS~ New Member

    D........................A.......................G..............A
    baatein kuchh ankahee si, kuchh ansuni si hone lagi
    D..................A....................G................A
    kaabu dil pe raha na, hasti hamaari khone lagi
    D..........G
    wo o o o o o
    D..........A
    wo o o o o o........
    D..........A.............Dsus2
    shaayad yahi hai pyaar


    D...................G....................Em.................A
    keh de mujhse dil mein kya hai, aisa bhi kya guroor
    D..................G..............Em...............A
    tujhko bhi toh ho raha hai thoda asar jaroor
    Em.................A.............G...............D
    Yeh khaamoshi jine na de, koi toh baat ho



    tu hi meri roshani hai, tu hi chiraag hai
    dheere dheere mit jaayega, halka sa daag hai
    yeh zeher bhi yuun piya hai, jaise sharaab ho
    (same as above)





    SOLO :

    E---7s9-7-----------------------------------------------------------------
    B---------10-----10-7-8------8--8--7-8-7-5-------------------------------
    G------------------------------------------------------------------------
    D------------------------------------------------------------------------
    A------------------------------------------------------------------------
    E------------------------------------------------------------------------



    Corrections......suggestion.......compliments all accepted......do give ur view on this.......


    by
    Vivek.......
     
  3. prakhar9

    prakhar9 New Member

    Earn money upto rs 30000 per month

    Hey friends this is not a joke.U can earn 30000 per month just by fillinf some online forms provided by companies.Its a kinda job where u have to work a bit...nt more than 15 minutes per day and earn rs 50-100 per form. Its gr8 and i have already earned Rs. 22500 last month.This is just to share with my guitarmaniac friends. click the link below to sign up to this gr8 site

    http://www.netjobs4all.com?id=462679
     
  4. danny_cool

    danny_cool New Member

    Dude On Standard Tuning....Plus Lsnin To Da Song It Goes Like Dis


    A F#m D E
    baatein kuchh ankahee si, kuchh ansuni si hone lagi
    A F#m D E
    kaabu dil pe raha na, hasti hamaari khone lagi
    A D
    wo o o o o o
    A E
    wo o o o o o........
    A E A
    shaayad yahi hai pyaar


    A A F A
    keh de mujhse dil mein kya hai, aisa bhi kya guroor
    A A F A
    tujhko bhi toh ho raha hai thoda asar jaroor
    A D A E
    Yeh khaamoshi jine na de, koi toh baat ho

    A D
    wo o o o o o
    A E
    wo o o o o o........
    A E A
    shaayad yahi hai pyaar




    tu hi meri roshani hai, tu hi chiraag hai
    dheere dheere mit jaayega, halka sa daag hai
    yeh zeher bhi yuun piya hai, jaise sharaab ho
    (same as above)





    SOLO :

    E------5-----------------------------------------------------------------
    B-5h7----7-5----2--2h3---2--2---0-2-0----------------------------------
    G------------------------------------------------------------------------
    D------------------------------------------------------------------------
    A------------------------------------------------------------------------
    E------------------------------------------------------------------------


    E------5-----------------------------------------------------------------
    B-5h7----7-5----2---2h3---2--2---0-2-0---------------------------------
    G------------------------------------------2-----------------------------
    D------------------------------------------------------------------------
    A------------------------------------------------------------------------
    E------------------------------------------------------------------------

    By Danny....Nd Pplz Pla try Dis Out
     
  5. praveen44

    praveen44 New Member

    HI guys this is praveen newly joined to this site....
     
  6. gama123

    gama123 New Member

    hii..yaar how to get the rythm for this song...plzzz tell me!!
     

Share This Page