Aye Bachchu (Ghajini)

Discussion in 'Hindi Guitar Tabs - Submit or Request' started by dkgbond3, Dec 10, 2008.

  1. dkgbond3

    dkgbond3 New Member

    Film = Ghajini
    Track = Aye Bachchu
    Composer = A. R. Rahman
    Lyrics = Prasoon Joshi
    Singer = Suzanne

    hey ppl..this is my first..so hope you all won't mind if not exact
    infact its not exactly the same as the original song..specially the last bar but its just almost close to that (and ofcourse, the main thing...it sounds good)
    hope you'll enjoy this great rahman number
    (check the attachment (txt) if any problems with this)

    :)

    full release full

    E-------------|-------------------|------------------|---------------------|-------10------------------------|
    B-------------|-------------------|------------------|---------------------|----10----10---------------------|
    G---------10-|--12b14---(14)--|-r12--10*-10*--|---------------------|-12----------12--10b---10~~~|
    D---10-12---|-------------------|-------------------|-12p10----10--12-|----------------------------------|
    A-------------|-------------------|-------------------|--------12---------|----------------------------------|
    e-------------|-------------------|-------------------|--------------------|----------------------------------|



    full release full

    E|----------|---------------------------|-10-13-10----10----10----|-------10-------------------|
    B|------13-|-10----10*-10*--10h13-|----------13----13----13b-|-(13)-----13-10------------|
    G|-(10)----|----12---------------------|----------------------------|----------------12-10-12b-r|
    D|----------|---------------------------|----------------------------|------------------------------|
    A|----------|---------------------------|----------------------------|------------------------------|
    e|----------|---------------------------|----------------------------|------------------------------|



    vibrato vibrato

    E|-------------------------|--------------------|------------------|---------------------------|
    B|----13*--10--------10-|--------------------|----10-----------|---------------------------|
    G|-10---------12-10-----|-12-10-----10~~~|-------12-10----|-------10-12--------------|
    D|------------------------|-------12*----------|-12----------12-|-10-12-------10-12~~~-|
    A|------------------------|---------------------|------------------|---------------------------|
    e|------------------------|---------------------|------------------|---------------------------|



    * = staccato
    ~ = let ring
    b = bend
    r = release
    p = pull off
    h = hammer on
     

    Attached Files:

  2. yash1331

    yash1331 New Member

    i cant understand it !! pls make a video for me + m looking for the starting electric guitar tune !!
     

Share This Page